Oops, an error
Loading. Please wait.

Goons Of Hazzard Bass

885 views 6 this week
1 commentread comment
1 2 3 4 5
2 more votes to show rating
add to favorites
launch autoscroll
font size
0
reset
guitar tuner
×
Best way to learn
"Goons Of Hazzard"
Autoscroll
slow
fast
+/-
esc
set tempo
stop
Author
Difficulty
Dead Kennedys
Goons Of Hazzard
Frankenchrist
-------------------------------------------------------|
-------------------------------------------------------|
-------------------------------------------------------|
-0-3-0-5-3-00-3-0-6-6-5-3-0-3-0-5-3-00-3-0-6-6-5-3-----|

-------------------------------------------------------|
-------------------------------------------------------|
-------------------------------------------------------|
-0-3-0-5-3-00-3-0-6-6-5-3-0-3-0-5-3-00-3-0-6-6-5-3-----|
Suggest correction
Give kudos to tab author, rate the tab!
1 2 3 4 5
comments
print report bad tab
1 comment total.
0 reply
cdubrob28 10 Jun 09, 2016 08:46 PM

-------------------------------------------------------|
-------------------------------------------------------|
-------------------------------------------------------|
-0-3--5-3-00-3-0-6-6-5-3-0-3--5-3-00-3-0-6-6-5-3-----|

-------------------------------------------------------|
-------------------------------------------------------|
-------------------------------------------------------|
-0-3--5-3-00-3-0-6-6-5-3-0-3--5-3-00-3-0-6-6-5-3-----|

guest
You may want to rate the tab now too:
select rating
Wanna post a correction for this tab? Suggest correction