Oops, an error
Loading. Please wait.

Goons Of Hazzard Tab

1,035 views 3 this week
no commentswrite comment
1 2 3 4 5
3 more votes to show rating
add to favorites
launch autoscroll
font size
0
reset
how to read this tab
guitar tuner
×
Best way to learn
"Goons Of Hazzard"
Autoscroll
slow
fast
+/-
esc
set tempo
stop
From the album: Frankenchrist
classic song dunno why no-ones tabbed it yet but here it is you 100% correct tab. Enjoy!

on the intro while the bass line is playing-

E----0----|
B----0----|
G----1----|   Then just play some notes from that chord (the top three)
D----2----|
A----2----|
E----0----|


main riff thing-

E--14-14-14-14-14--13-13--14-14-14-14-14--15-15--|
B--12-12-12-12-12--11-11--12-12-12-12-12--13-13--|
G------------------------------------------------|
D------------------------------------------------|
A------------------------------------------------|
E------------------------------------------------|


bit before verse-

E--0----1---0----3------------|
B--0----1---0------1----------|
G--1----2---1---------3^---1--|  listen to the record to see how to bend the
D--2----3---2------------3----|  note.
A--2----3---2-----------------|
E--0----1---0-----------------|


verse-

E--0----1----0----------5----6----0--|
B--0----1----0----------5----6----0--|
G--1----2----1----------6----7----1--|  after this play the lead bit from
D--2----3----2----------7----8----2--|  above. then play the E and F chords
A--2----3----2----------7----8----2--|  again.
E--0----1----0----------5----6----0--|


pre-chorus-

E----------------------------|
B--7----8----9---------------|
G--7----8----9---------------|
D--7----8----9----2-0--------|
A--5----6----7--------2-0----|
E-------------------------2--|


chorus-

E--------------------7--5--3--0--|
B-7--9--7--9--7--9-7-7--5--3--0--|
G-7--9--7--9--7--9-7-8--6--4--1--|  on the repititions of the chorus it stays
D-7--9--7--9--7--9-7-9--7--5--2--|  on the G chord and then goes into the main
A-5--7--5--7--5--7-5-9--7--5--2--|  riff.
E--------------------7--5--3--0--|


middle-

E------------------------------------------------------------|
B-9---9---10-9---9---9---10-9---7---7---8--7---7---7---8--7--|
G-9---9---9--9---9---9---9--9---7---7---7--7---7---7---7--7--|  X2
D-9---9---9--9---9---9---9--9---7---7---7--7---7---7---7--7--|
A-7---7---7--7---7---7---7--7---5---5---5--5---5---5---5--5--|
E------------------------------------------------------------|


middle cont.-

E-------------------|
B--------------9-9--|
G--------------9-9--| x2 tremlo pick the single notes
D--------------9-9--|
A-----------0--7-7--|
E--0--3--2----------|

middle cont.-

E--------------------------------------------------8--|
B--------------------------------------------------8--|
G--------------------------------------------2--1--9--| tremlo pick these
D--------------------2--1-----0--4--3--0--3--------10-|
A--------2--1--0--3--------2-----------------------10-|
E--0--3--------------------------------------------8--|


ending- play this after the final chorus

E----------|
B--9----7--|
G--9----7--| x5 then on the 6th time play.......
D--9----7--|
A--7----5--|
E----------|


E----------------------------------------------|
B-9----7-7-7-7-7----7-7-7-7-7----7-7-7-7-7--9--|
G-9----7-7-7-7-7----7-7-7-7-7----7-7-7-7-7--9--|
D-9----7-7-7-7-7----7-7-7-7-7----7-7-7-7-7--9--|
A-7----5-5-5-5-5----5-5-5-5-5----5-5-5-5-5--7--|
E----------------------------------------------|


thats it!

tabbed by the masterful punk tabber chris.l

if you want any PUNK songs tabbed on hear give me a yell- gerbilgenitalia@yahoo.co.uk
Suggest correction
Give kudos to tab author, rate the tab!
1 2 3 4 5
comments
print report bad tab
guest
You may want to rate the tab now too:
select rating
Wanna post a correction for this tab? Suggest correction