Oops, an error
Loading. Please wait.
We have an official Holiday In Cambodia tab made by UG professional guitarists. Check out the tab »
×
11,059 views 9 this week
4 commentsread comments
1 2 3 4 5
x 8
add to favorites
×
Save as Personal and add changes to this tab that will be seen only by you. Learn more ›
×
You can save this tab as Personal to edit and correct it or add notes. All changes will be seen only by you. Learn more »
launch autoscroll
font size
0
reset
guitar tuner
backing track
0:00
0:00
edit
Autoscroll
slow
fast
+/-
esc
set tempo
stop
Author
Unregistered
"Holiday in Cambodia" - Dead Kennedys

Main part:
G|--------------------------|
D|--------------------------|
A|--------------------------|
E|--8-8-8-7-6-5-5-5-5-5-5---| (repeat)

Verse pt 2:
G|------------------------|
D|------------------------|
A|------------------------|
E|--3-3-3-3-10-10-10-10---|(4x)

Bridge:
G|------------------------------------|
D|------------------------------------|
A|--5-5-5-5-3-3-3-3-----3-3-1-1-1-1---|
E|------------------3-3---------------|

Pre-Chorus:
G|-----------------------------------|
D|------------------------------7\---|
A|--2-2-2-2-3-3-3-3-5-5-5-5-3-3------|
E|-----------------------------------|

G|--------------------------------------------|
D|--------------------------------------------|
A|--2-2-2-2-3-3-3-3-5-5-5-5-7h8-7h8-7h8-7h8---|
E|--------------------------------------------|

Chorus:
G|------------------------------------|
D|------------------------------------|
A|--0-0-3-3-5-5-5-5-0-0-3-3-5-5-5-5---|
E|------------------------------------|

G|------------------------------------------|
D|------------------------------------------|
A|--0-0-3-3-5-5-5-5-0-0-3-3-----------------|
E|--------------------------1--1--1-1-1-1---|

All during the guitar solo, you play the main part most of the time.
Anything that doesn't sound familiar play the main part to.  What
does sound familiar, play that.

Outro:
G|-------------------------------------|
D|-------------------------------------|
A|--0-0-0-0-3-3-3-3-5-5-5-5-8-8-8-10---|
E|-------------------------------------|
How it goes together:

Main Part (18x, I think)
2nd Verse: (4x)
Bridge: (2x)
Pre-chorus
Chorus
Main Part (10x)
2nd Verse: (4x)
Bridge: (2x)
Pre-chorus
Chorus
The whole solo ordeal
Bridge: (2x)
Outro: (6x or 7x, I can't remember)
Chorus

Tabbed by Matt Hamann
E-mail me at matt1@jps.net or gartuck@hotmail.com

            
            
Suggest correction
Creating personal tab
Creating personal tab
You can edit any tab online and save it as your Personal.

You can edit, replace or remove any tab part or add personal notes – all changes will be seen only by you.

Personal tabs can be accessed anytime from any device, even offline.
Learn more »
comments
print report bad tab
4 comments total. Showing first comments.
0 reply
jak_daniels 20 Mar 06, 2008 04:48 PM

what. the f--k. am i looking at? try using a program next time...

0 reply
jak_daniels 20 Mar 06, 2008 04:49 PM

...please?
-_-

0 reply
BassBass22 10 May 20, 2008 12:00 PM

horribly disgusting. worst tab in the solor system.

guest
Wanna post a correction for this tab? Suggest correction