Oops, an error
Loading. Please wait.
We have an official Holiday In Cambodia tab made by UG professional guitarists. Check out the tab »
×
5,775 views 48 this week
1 commentread comment
1 2 3 4 5
x 5
add to favorites
×
Save as Personal and add changes to this tab that will be seen only by you. Learn more ›
×
You can save this tab as Personal to edit and correct it or add notes. All changes will be seen only by you. Learn more »
launch autoscroll
font size
0
reset
how to read this tab
guitar tuner
backing track
0:00
0:00
edit
Autoscroll
slow
fast
+/-
esc
set tempo
stop
Author
Difficulty
Holiday In Cambodia by Dead Kennedys
Give Me Convenience Or Give Me Death


Intro A
e--17(slide finger down)--9(slide finger down)---|
B------------------------------------------------|
G------------------------------------------------|
D------------------------------------------------|
A------------------------------------------------|
E------------------------------------------------|

Intro B
e-------------------------------------------------------------------|
B-------------------------------------------------------------------|
G----14--14--14--14--14--14--14--14--14--14--14--14-1414141414------|
D-------------------------------------------------------------------|
A--12--12--12--12--12--12--12--12--12--12--12--12---1212121212------|
E-------------------------------------------------------------------|

Verse
e-------------------------|
B-------------------------|
G--14--9--8--55--4-11-10--|
D-------------------------|
A--12--7--6--33--2-9--8---|2x
E-------------------------|

e-------------------------------------|
B-------------------------------------|
G-------------------------------------|
D-------------------------------------|
A--3-3-3--2-2-2--1-1--0-0-0-0-0-0-0---|2x
E-------------------------------------|

e-------------------------------------|
B-------------------------------------|
G-------------------------------------|
D-------------------------------------|
A--3-3-3--2-2-2--1-1--0-0-0-0-0-0-0---|4x
E-------------------------------------|
PM ................................

e------7--------------10--------------|
B---------7---7-------------10--10----|
G----7------7-------11--------10------|
D--9-------------12-------------------|
A-------------------------------------|2x
E-------------------------------------|

e--------------------------------------------------|
B--------------------------------------------------|
G--------------------------------------------------|
D--1212121212--1010101010----------101010--777777--|
A--------------------------121212------------------|2x
E--------------------------------------------------|

e------5--------7---------8---------7-----|
B----6---6----8---8----10---10----8---8---|
G--7--------9--------10---------9---------|
D-----------------------------------------|
A-----------------------------------------|2x
E-----------------------------------------|

Chorus
e----------------------------|   e---------------13131313131313--|
B----------------------------|   B---------------13131313131313--|
G----------------------------|   G-------------------------------|
D--777----------121212121212-|   D--777--------------------------|
A--777--101010--121212121212-|3x A--777--101010------------------|
E--555--8-8-8---101010101010-|   E--555--8-8-8-------------------|

Solo
e--17171717171717--18181818181818--19191919191919--(slide finger----|
B---------------------------------------------------down e string)--|
G-------------------------------------------------------------------|
D-------------------------------------------------------------------|
A-------------------------------------------------------------------|
E-------------------------------------------------------------------|

Bridge
e-------------------------|
B-------------------------|
G--14--9--8--55--4-11-10--|
D-------------------------|
A--12--7--6--33--2-9--8---|2x
E-------------------------|

e--------------------------------|
B--------------------------------|
G--------------------------------|
D--------------------------------|
A----7-9-----7-9-----7-9----7-9--|
E--7-----7-7-----7-7-----7-7-----|

e--------------------------------------------------|
B--------------------------------------------------|
G--------------------------------------------------|
D--1212121212--1010101010----------101010--777777--|
A--------------------------121212------------------|2x
E--------------------------------------------------|

e----------------------------------------------------|   
B----------------------------------------------------|   
G----------------------------------------------------| 
D--777777----------------121212121212--151515151515--|   
A--777777--101010101010--121212121212--151515151515--|6x
E--555555--8-8-8-8-8-8---101010101010--131313131313--| 

Outro
e--------|
B--------|
G--------|
D--10-7--|
A--10-7--|
E--8--5--|

Song Order
Intro A 1x
Intro B 1x
Verse   1x
Chorus  1x
Verse   1x
Chorus  1x
Solo    1x
Bridge  1x
Chorus  1x
Outro   1x

            
            
Suggest correction
Creating personal tab
Creating personal tab
You can edit any tab online and save it as your Personal.

You can edit, replace or remove any tab part or add personal notes – all changes will be seen only by you.

Personal tabs can be accessed anytime from any device, even offline.
Learn more »
comments
print report bad tab
1 comment total.
0 reply
Wiljaml 51 Sep 05, 2017 10:53 AM

I've got to learn the song

guest
You may want to rate the tab now too:
select rating
Wanna post a correction for this tab? Suggest correction