Oops, an error
Loading. Please wait.

I Am The Owl bass

4,095 views 9 this week
no commentswrite comment
1 2 3 4 5
x 3
add to favorites
×
Save as Personal and add changes to this tab that will be seen only by you. Learn more ›
×
You can save this tab as Personal to edit and correct it or add notes. All changes will be seen only by you. Learn more »
launch autoscroll
font size
0
reset
guitar tuner
edit
Autoscroll
slow
fast
+/-
esc
set tempo
stop
Author
Difficulty
Dead Kennedys - I Am the Owl, Off The Album Plastic Surgery Disasters In 1982

Intermediate because of playin speed listin to some fore all your timeing

R-1
G|----------|
D|----------|
A|--3-2-----|
E|2-----h0--|

R-2
G|----------------|
D|----------------|
A|----------------|
E|0-0-0-0-5-5-4-4-|

R-3
G|----------------------------|
D|----------------------24444-|
A|-------------------232------|
E|0-0-0-0-5-5-4-4-2-----------|

R-4
 |   2X's      |             |
G|-------------|-------------|-----------|
D|-------------|-------------|-----------|
A|44-33-22-0---|-44-33-22-00-|--------44-|
E|-----------2-|-------------|5-42012----|

R-5
 |   2X's  |
G|---------|---------------------------|
D|4--------|--------------77-6-77-6787-|
A|--4---13-|-77-6-77-6787--------------|
E|----21---|---------------------------|

R-6        ___________________________________
           ||      play real fast here        |
 |   1X    ||   5X's ||           |4X's||     |
G|---------||--------||-----------|----||7~---|
D|77776787-||--------||-----------|----||---0~|
A|---------||--------||5545-5545--|7767||-----|
E|---------||55554565||-----------|----||-----|

R-7
just a slight change of R-1
G|--------|
D|--------|
A|--------|
E|2-2-2/5-|

Play Order

R-1 X42
R-2 X1
R-1 X16
R-3 X1
R-4 X1
R-1 X27
|
on the 27th time play
A|-2-3-2----|
E|2---------|h0

R-2 X1
R-1 X14
R-3 X1
R-4 X1
R-5 X1
R-6 X1
R-1 X16
R-2 X1
R-1 X14
R-7 X4
R-4 X1
R-1 X1

            
            
Suggest correction
Creating personal tab
Creating personal tab
You can edit any tab online and save it as your Personal.

You can edit, replace or remove any tab part or add personal notes – all changes will be seen only by you.

Personal tabs can be accessed anytime from any device, even offline.
Learn more »
Give kudos to tab author, rate the tab!
1 2 3 4 5
comments
print report bad tab
guest
You may want to rate the tab now too:
select rating
Wanna post a correction for this tab? Suggest correction