Oops, an error
Loading. Please wait.

I Kill Children bass

version 2
version 2

Whole song

Interactive

1,186 views 1 this week
no commentswrite comment
1 2 3 4 5
3 more votes to show rating
add to favorites
×
Save as Personal and add changes to this tab that will be seen only by you. Learn more ›
×
You can save this tab as Personal to edit and correct it or add notes. All changes will be seen only by you. Learn more »
launch autoscroll
font size
0
reset
guitar tuner
edit
Autoscroll
slow
fast
+/-
esc
set tempo
stop
Difficulty
intermediate
Band: Dead Kennedys
Song: I Kill Children
Tabbed by: a smart correct person

Intro
G-------------------|
D-------------------|
A--------0----------|
E--3----------3-----|

Verse
G-----------------|
D-----------------|
A--1-1-1/3-3-3----|
E-----------------|

Interlude
G--------------------------------------------------------------------------|
D--1-1-1-1---------1-------------------------1-1-1-1-1-1----------1--------|
A--------------1-1------1--3-3-3-3--1-1---------------------1-1-------1----|
E--------------------------------------------------------------------------|

G--------------------------------------------------------|
D---------------------1-1-------------------------1-1----|
A--3-3-3-3--1-1-------------3-3-3-3--1-1-----------------|
E--------------------------------------------------------|

Bridge
G--------------------------|
D--------------------------|
A------------0-0--1-1/3----|
E--3-3---------------------|

G----------------------------|
D--3-3-3-3--6-6-6-6-6-6-6----|
A----------------------------|
E----------------------------|

Play this at the end when Jello sings "cant hardly wait for yours"
G-------------------------|
D--1-1-1-1--------1-1-----|
A--------------1-1--------|
E-------------------------|

And that's it. You can probably figure out the number of times to play the different 
You're smart
little boys and girls.
Suggest correction
Creating personal tab
Creating personal tab
You can edit any tab online and save it as your Personal.

You can edit, replace or remove any tab part or add personal notes – all changes will be seen only by you.

Personal tabs can be accessed anytime from any device, even offline.
Learn more »
Give kudos to tab author, rate the tab!
1 2 3 4 5
comments
print report bad tab
guest
Wanna post a correction for this tab? Suggest correction