Oops, an error
Loading. Please wait.

Kepone Factory Bass Tab

28 views 1 this week
no commentswrite comment
1 2 3 4 5
3 more votes to show rating
add to favorites
launch autoscroll
font size
0
reset
guitar tuner
Autoscroll
slow
fast
+/-
esc
set tempo
stop
Help us to improve Ultimate-Guitar.com Take our survey!
×
Author
Difficulty
novice
                             DEAD KENNEDYS - KEPONE FACTORY

Tabbed by: Rottney (reconssuck)
E-mail: reconssuck@hotmail.de

Artist: Dead Kennedys
Song: Kepone Factory
Album: In God We Trust Inc. (1981)
Bassist: Klaus Flouride


[Main Riff] x7

G|---------|---------|---------|---------|
D|---------|---------|---------|---------|
A|---------|---------|---------|---------|
E|-5-5-5-5-|-3-3-3-3-|-5-5-5-5-|-8-8-7-7-|


[Chorus]

G|---------|----------|----------|--------------|-----------------|
D|---------|----------|----------|--------------|-----------------|
A|---------|----------|----------|--7-7-7-7-7-7-|-3-5-0-0-0-0-0-0-|
E|-5-5-----|-5-5------|-5-5------|--------------|-----------------|

[Main Riff] x5

G|---------|---------|---------|---------|
D|---------|---------|---------|---------|
A|---------|---------|---------|---------|
E|-5-5-5-5-|-3-3-3-3-|-5-5-5-5-|-8-8-7-7-|


[Chorus]

G|---------|----------|----------|--------------|-----------------|
D|---------|----------|----------|--------------|-----------------|
A|---------|----------|----------|--7-7-7-7-7-7-|-3-5-0-0-0-0-0-0-|
E|-5-5-----|-5-5------|-5-5------|--------------|-----------------|

[Bridge]

G|---------|---------|---------|---------|---------|---------|---------|---------|-------|
D|---------|---------|---------|---------|---------|---------|---------|---------|-------|
A|-5-5-3-3-|-5-5-3-3-|-5-5-3-3-|-5-5-3-3-|-7-7-5-5-|-7-7-5-5-|-7-7-5-5-|-7-7-5-5-|-9-9-9-|
E|---------|---------|---------|---------|---------|---------|---------|---------|-------|


G|---------|---------|---------|---------|
D|-7-7-----|---------|-7-7-----|---------|
A|-----7-7-|-9-9-9-9-|-----7-7-|-9-9-9-9-|
E|---------|---------|---------|---------|

[Main Riff] x4

G|---------|---------|---------|---------|
D|---------|---------|---------|---------|
A|---------|---------|---------|---------|
E|-5-5-5-5-|-3-3-3-3-|-5-5-5-5-|-8-8-7-7-|

[Last Chorus]

G|---------|----------|----------|--------------|--------|---------|
D|---------|----------|----------|--------------|--------|---------|
A|---------|----------|----------|--7-7-7-7-7-7-|-3-0----|-0-------|
E|-5-5-----|-5-5------|-5-5------|--------------|--------|---------|




That's all
Enjoy and Rate
Suggest correction
Give kudos to tab author, rate the tab!
1 2 3 4 5
comments
print report bad tab
guest
You may want to rate the tab now too:
select rating
Wanna post a correction for this tab? Suggest correction