Oops, an error
Loading. Please wait.

Kill The Poor tab

version 1
version 1

Whole song

Interactive

8,380 views 12 this week
1 commentread comment
1 2 3 4 5
1 last vote to show rating
add to favorites
×
Save as Personal and add changes to this tab that will be seen only by you. Learn more ›
×
You can save this tab as Personal to edit and correct it or add notes. All changes will be seen only by you. Learn more »
launch autoscroll
font size
0
reset
how to read this tab
guitar tuner
edit
Autoscroll
slow
fast
+/-
esc
set tempo
stop
Author
-------------------------------------------------------------------------------
                             Kill The Poor - Dead Kennedys
-------------------------------------------------------------------------------
Check out my other tabs too

Tabbed by:BIG J
Email:RescuMeFrom3@aol.com

Tuning:standard

e|-5---2---3---5---|
B|-7---3---3---5---|
G|-7---4---4---6---|
D|-7---4---5---7---|
A|-5---2---5---7---|
E|-5---2---3---5---|

e|-5-5-5-5--5---5-5-5-2-2-2--2-2-2-3-3-3--3-3-3-5-5-5--|
B|-5-5-5-5--7---8-8-7-3-3-3--5-5-3-3-3-3--3-3-3-5-5-5--|
G|-7-7-7-6--7---7-7-7-4-4-4--4-4-4-4-4-4--5-5-4-6-6-6--|
D|-7-7-7-7--7---7-7-7-4-4-4--4-4-4-5-5-5--5-5-5-7-7-7--|
A|-7-7-7-7--5---5-5-5-2-2-2--2-2-2-5-5-5--5-5-5-7-7-7--|
E|-5-5-5-5--5---5-5-5-2-2-2--2-2-2-3-3-3--3-3-3-5-5-5--|

play 2x
e|-5----------------------|-5-5-5-5-5--5--5--5--5--5--5-|
B|-7----------------------|-5-5-5-5-5--5--5--5--5--5--5-|
G|-7----------------------|-6-6-6-6-6--7--6--5--6--5--6-|
D|-7----------------------|-7-7-7-7-7--7--7--7--7--7--7-|
A|-5----------------------|-7-7-7-7-7--7--7--7--7--7--7-|
E|-5--7-7-7-8-8-8-5-------|-5-5-5-5-5--5--5--5--5--5--5-|
(play 5x first, 3x second)   (play once both times)

e|--------------------------------------------------------------|
B|--------------------------------------------------------------|
G|--------------------------------------------------------------|
D|-7-7-7-7-7-7-7-7-7-7-7-7-7-7-7--4-4-4-4-4-4-4-4-4-4-4-4-4-4-4-|
A|-5-5-5-5-5-5-5-5-5-5-5-5-5-5-5--2-2-2-2-2-2-2-2-2-2-2-2-2-2-2-|
E|--------------------------------------------------------------|

e|--------------------------------5-5-5-5-5-5-5--5--5--5--5-|
B|--------------------------------5-5-5-5-5-5-5--5--5--5--5-|
G|--------------------------------6-6-6-6-6-6-6--7--6--7--6-|
D|--------------------------------7-7-7-7-7-7-7--7--7--7--7-|
A|-5-5-5-5-5-5-5-5-5-5-5-5-5-5-5--7-7-7-7-7-7-7--7--7--7--7-|
E|-3-3-3-3-3-3-3-3-3-3-3-3-3-3-3--5-5-5-5-5-5-5--5--5--5--5-|

play 2x
e|-5----------------------|-5-5-5-5-5--5--5--5--5--5--5-|
B|-7----------------------|-5-5-5-5-5--5--5--5--5--5--5-|
G|-7----------------------|-6-6-6-6-6--7--6--5--6--5--6-|
D|-7----------------------|-7-7-7-7-7--7--7--7--7--7--7-|
A|-5----------------------|-7-7-7-7-7--7--7--7--7--7--7-|
E|-5--7-7-7-8-8-8-5-------|-5-5-5-5-5--5--5--5--5--5--5-|
(play 5x first, 3x second)   (play once both times)

e|--------------------------------------------------------------|
B|--------------------------------------------------------------|
G|--------------------------------------------------------------|
D|-7-7-7-7-7-7-7-7-7-7-7-7-7-7-7--4-4-4-4-4-4-4-4-4-4-4-4-4-4-4-|
A|-5-5-5-5-5-5-5-5-5-5-5-5-5-5-5--2-2-2-2-2-2-2-2-2-2-2-2-2-2-2-|
E|--------------------------------------------------------------|

e|--------------------------------5-5-5-5-5-5-5--5--5--5--5-|
B|--------------------------------5-5-5-5-5-5-5--5--5--5--5-|
G|--------------------------------6-6-6-6-6-6-6--7--6--7--6-|
D|--------------------------------7-7-7-7-7-7-7--7--7--7--7-|
A|-5-5-5-5-5-5-5-5-5-5-5-5-5-5-5--7-7-7-7-7-7-7--7--7--7--7-|
E|-3-3-3-3-3-3-3-3-3-3-3-3-3-3-3--5-5-5-5-5-5-5--5--5--5--5-|

e|-5-5-5-5-5-5-5-5-5-5-5-5--2-2-2-2-2-2-2-2-2-2-2-2-|
B|-7-7-7-7-7-7-8-8-8-8-8-7--3-3-3-3-3-3-5-5-5-5-5-3-|
G|-7-7-7-7-7-7-7-7-7-7-7-7--4-4-4-4-4-4-4-4-4-4-4-4-|
D|-7-7-7-7-7-7-7-7-7-7-7-7--4-4-4-4-4-4-4-4-4-4-4-4-|
A|-5-5-5-5-5-5-5-5-5-5-5-5--2-2-2-2-2-2-2-2-2-2-2-2-|
E|-5-5-5-5-5-5-5-5-5-5-5-5--2-2-2-2-2-2-2-2-2-2-2-2-|

e|-3-3-3-3-3-3-3-3-3-3-3-3--5-5-5-5-5-5-5--5--5-|
B|-3-3-3-3-3-3-4-4-4-4-4-3--5-5-5-5-5-5-5--5--5-|
G|-4-4-4-4-4-4-4-4-4-4-4-4--6-6-6-6-6-6-6--7--6-|
D|-5-5-5-5-5-5-5-5-5-5-5-5--7-7-7-7-7-7-7--7--7-|
A|-5-5-5-5-5-5-5-5-5-5-5-5--7-7-7-7-7-7-7--7--7-|
E|-3-3-3-3-3-3-3-3-3-3-3-3--5-5-5-5-5-5-5--5--5-|

e|-10-10-10-10-10-10-10-10-10-10-10-|
B|-12-12-12-12-12-13-13-13-13-13-12-|
G|-12-12-12-12-12-12-12-12-12-12-12-|
D|-12-12-12-12-12-12-12-12-12-12-12-|
A|-10-10-10-10-10-10-10-10-10-10-10-|
E|-10-10-10-10-10-10-10-10-10-10-10-|

e|-8--8--8--8--8--8--8--8--8--8--8--|
B|-10-10-10-10-10-11-11-11-11-11-10-|
G|-10-10-10-10-10-10-10-10-10-10-10-|
D|-10-10-10-10-10-10-10-10-10-10-10-|
A|-8--8--8--8--8--8--8--8--8--8--8--|
E|-8--8--8--8--8--8--8--8--8--8--8--|

e|-7-7-7-7-7-7-7-7-7-7-7-7-7-7-7-|
B|-9-9-9-9-9-9-9-9-9-9-9-9-9-9-9-|
G|-9-9-9-9-9-9-9-9-9-9-9-9-9-9-9-|
D|-9-9-9-9-9-9-9-9-9-9-9-9-9-9-9-|
A|-7-7-7-7-7-7-7-7-7-7-7-7-7-7-7-|
E|-7-7-7-7-7-7-7-7-7-7-7-7-7-7-7-|

solo
e|-------------------------------------------------------------------------|
B|-----8-----8-----8-----8-----8-----8-----8-----8-----8-----8-----8-----8-|
G|-9b11--9b11--9b11--9b11--9b11--9b11--9b11--9b11--9b11--9b11--9b11--9b11--|
D|-------------------------------------------------------------------------|
A|-------------------------------------------------------------------------|
E|-------------------------------------------------------------------------|

e|--------------------------11h12-12-12-12-12--15-12-------11b12-|
B|-----8-----8-----8-----8--11h12-12-12-12-12-------15-12--11b12-|
G|-9b11--9b11--9b11--9b11----------------------------------------|
D|---------------------------------------------------------------|
A|---------------------------------------------------------------|
E|---------------------------------------------------------------|

play 3x
e|-5---5-5--8--8--8--(8)--8--|
B|-7---7-7--10-10-8--(8)--8--|
G|-7---7-7--10-10-9--(9)--9--|
D|-7---7-7--10-10-10-(10)-10-|
A|-5---5-5--8--8--10-(10)-10-|
E|-5---5-5--8--8--8--(8)--8--|

e|-5-5-5-5-5-5-5--5-5--5-|
B|-5-5-5-5-5-5-5--5-5--5-|
G|-6-6-6-6-6-6-6--7-7--6-|
D|-7-7-7-7-7-7-7--7-7--7-|
A|-7-7-7-7-7-7-7--7-7--7-|
E|-5-5-5-5-5-5-5--5-5--5-|

play 3x
e|-5---5-5--8--8--8--(8)--8--|
B|-7---7-7--10-10-8--(8)--8--|
G|-7---7-7--10-10-9--(9)--9--|
D|-7---7-7--10-10-10-(10)-10-|
A|-5---5-5--8--8--10-(10)-10-|
E|-5---5-5--8--8--8--(8)--8--|

e|-5-5-5-5-5-5-5--5-5--5-|
B|-5-5-5-5-5-5-5--5-5--5-|
G|-6-6-6-6-6-6-6--7-7--6-|
D|-7-7-7-7-7-7-7--7-7--7-|
A|-7-7-7-7-7-7-7--7-7--7-|
E|-5-5-5-5-5-5-5--5-5--5-|

e|--------------------------------------------------------------|
B|--------------------------------------------------------------|
G|--------------------------------------------------------------|
D|-7-7-7-7-7-7-7-7-7-7-7-7-7-7-7--4-4-4-4-4-4-4-4-4-4-4-4-4-4-4-|
A|-5-5-5-5-5-5-5-5-5-5-5-5-5-5-5--2-2-2-2-2-2-2-2-2-2-2-2-2-2-2-|
E|--------------------------------------------------------------|

e|--------------------------------5-5-5-5-5-5-5--5--5--5--5-|
B|--------------------------------5-5-5-5-5-5-5--5--5--5--5-|
G|--------------------------------6-6-6-6-6-6-6--7--6--7--6-|
D|--------------------------------7-7-7-7-7-7-7--7--7--7--7-|
A|-5-5-5-5-5-5-5-5-5-5-5-5-5-5-5--7-7-7-7-7-7-7--7--7--7--7-|
E|-3-3-3-3-3-3-3-3-3-3-3-3-3-3-3--5-5-5-5-5-5-5--5--5--5--5-|

e|-5-5-5-5-5-5-5-5-5-5-5-5--2-2-2-2-2-2-2-2-2-2-2-2-|
B|-7-7-7-7-7-7-8-8-8-8-8-7--3-3-3-3-3-3-5-5-5-5-5-3-|
G|-7-7-7-7-7-7-7-7-7-7-7-7--4-4-4-4-4-4-4-4-4-4-4-4-|
D|-7-7-7-7-7-7-7-7-7-7-7-7--4-4-4-4-4-4-4-4-4-4-4-4-|
A|-5-5-5-5-5-5-5-5-5-5-5-5--2-2-2-2-2-2-2-2-2-2-2-2-|
E|-5-5-5-5-5-5-5-5-5-5-5-5--2-2-2-2-2-2-2-2-2-2-2-2-|

e|-3-3-3-3-3-3-3-3-3-3-3-3--5-5-5-5-5-5-5--5--5--5--5-|
B|-3-3-3-3-3-3-4-4-4-4-4-3--5-5-5-5-5-5-5--5--5--5--5-|
G|-4-4-4-4-4-4-4-4-4-4-4-4--6-6-6-6-6-6-6--7--6--7--6-|
D|-5-5-5-5-5-5-5-5-5-5-5-5--7-7-7-7-7-7-7--7--7--7--7-|
A|-5-5-5-5-5-5-5-5-5-5-5-5--7-7-7-7-7-7-7--7--7--7--7-|
E|-3-3-3-3-3-3-3-3-3-3-3-3--5-5-5-5-5-5-5--5--5--5--5-|

e|-5-5-5-5-5-5-5-5-5-5-5-5-5-5-5--2-2-2-2-2-2-2-2-2-2-2-2-2-2-2-|
B|-7-7-7-7-7-7-7-7-7-7-7-7-7-7-7--3-3-3-3-3-3-3-3-3-3-3-3-3-3-3-|
G|-7-7-7-7-7-7-7-7-7-7-7-7-7-7-7--4-4-4-4-4-4-4-4-4-4-4-4-4-4-4-|
D|-7-7-7-7-7-7-7-7-7-7-7-7-7-7-7--4-4-4-4-4-4-4-4-4-4-4-4-4-4-4-|
A|-5-5-5-5-5-5-5-5-5-5-5-5-5-5-5--2-2-2-2-2-2-2-2-2-2-2-2-2-2-2-|
E|-5-5-5-5-5-5-5-5-5-5-5-5-5-5-5--2-2-2-2-2-2-2-2-2-2-2-2-2-2-2-|

e|-3-3-3-3-3-3-3-3-3-3-3-3-3-3-3--5-5-5-5-5-5-5--5--5-|
B|-3-3-3-3-3-3-3-3-3-3-3-3-3-3-3--5-5-5-5-5-5-5--5--5-|
G|-4-4-4-4-4-4-4-4-4-4-4-4-4-4-4--6-6-6-6-6-6-6--7--6-|
D|-5-5-5-5-5-5-5-5-5-5-5-5-5-5-5--7-7-7-7-7-7-7--7--7-|
A|-5-5-5-5-5-5-5-5-5-5-5-5-5-5-5--7-7-7-7-7-7-7--7--7-|
E|-3-3-3-3-3-3-3-3-3-3-3-3-3-3-3--5-5-5-5-5-5-5--5--5-|

e|-10--10-10-10-10-10-10-10-10-10-10-10-10-10-10-|
B|-12--12-12-12-12-12-12-12-12-12-12-12-12-12-12-|
G|-12--12-12-12-12-12-12-12-12-12-12-12-12-12-12-|
D|-12--12-12-12-12-12-12-12-12-12-12-12-12-12-12-|
A|-10--10-10-10-10-10-10-10-10-10-10-10-10-10-10-|
E|-10--10-10-10-10-10-10-10-10-10-10-10-10-10-10-|

e|-8---8--8--8--8--8--8--8--8--8--8--8--8--8--8--|
B|-10--10-10-10-10-10-10-10-10-10-10-10-10-10-10-|
G|-10--10-10-10-10-10-10-10-10-10-10-10-10-10-10-|
D|-10--10-10-10-10-10-10-10-10-10-10-10-10-10-10-|
A|-8---8--8--8--8--8--8--8--8--8--8--8--8--8--8--|
E|-8---8--8--8--8--8--8--8--8--8--8--8--8--8--8--|

e|-7--7-7-7-7-7-7-7-7-7-7-7--7---7---7---|
B|-9--9-9-9-9-9-9-9-9-9-9-9--9---9---9---|
G|-9--9-9-9-9-9-9-9-9-9-9-9--9---9---9---|
D|-9--9-9-9-9-9-9-9-9-9-9-9--9---9---9---|
A|-7--7-7-7-7-7-7-7-7-7-7-7--7---7---7---|
E|-7--7-7-7-7-7-7-7-7-7-7-7--7---7---7---|

 b - bend
 / - slide up
 \ - slide down
 h - hammer-on
 p - pull-off
 ~ - vibrato
 + - harmonic
 x - Mute note

            
            
Suggest correction
Creating personal tab
Creating personal tab
You can edit any tab online and save it as your Personal.

You can edit, replace or remove any tab part or add personal notes – all changes will be seen only by you.

Personal tabs can be accessed anytime from any device, even offline.
Learn more »
Give kudos to tab author, rate the tab!
1 2 3 4 5
comments
print report bad tab
1 comment total.
0 reply
GuitaPlaya 402 Apr 03, 2006 02:50 PM

The song is in the key of D not A.

guest
You may want to rate the tab now too:
select rating
Wanna post a correction for this tab? Suggest correction