Oops, an error
Loading. Please wait.

Pull My Strings bass

version 1
version 1

Whole song

Interactive

4,781 views 6 this week
3 commentsread comments
1 2 3 4 5
x 9
add to favorites
×
Save as Personal and add changes to this tab that will be seen only by you. Learn more ›
×
You can save this tab as Personal to edit and correct it or add notes. All changes will be seen only by you. Learn more »
launch autoscroll
font size
0
reset
guitar tuner
edit
Autoscroll
slow
fast
+/-
esc
set tempo
stop
Author
I love this song, and decided to take a shot. It's my first tab and I've done it from 
I think it sounds about right, but any errors email me at boavspython@googlemail.com!


**VERY SORRY ABOUT HOW DIFFICULT IT IS TO FOLLOW! JUST TAKE THE RIFFS AND TRY TO FIT THEM IN**


TAB INFO
* = Let ring
/ = Slide up
\ = Slide down


INTRO x20
G|-----------|
D|-----------|
A|------5--3-|
E|-3/5-------|


PART A x3
G|---------|
D|---------|
A|-----7-5-|
E|-5-7-----|


PART B x1
G|---------|
D|---------|
A|---------|
E|-5-77-3*-|


PART C x12
G|-----------|
D|-----------|
A|------5--3-|
E|-3/5-------|


PART A x3
G|---------|
D|---------|
A|-----7-5-|
E|-5-7-----|


PART D x1
G|--------|
D|--------|
A|--------|
E|-5-77-3-|


PART E x3
G|-------------------|
D|---55---5---5---55-|
A|-------------------|
E|-33---3---3---33---|

PART F x1
G|-----------------|
D|---55---5--------|
A|----------3--131-|
E|-33---3----------|


PART E x1
G|-------------------|
D|---55---5---5---55-|
A|-------------------|
E|-33---3---3---33---|


PART F x1
G|-----------------|
D|---55---5--------|
A|----------3--131-|
E|-33---3----------|


PART C x12
G|-----------|
D|-----------|
A|------5--3-|
E|-3/5-------|


PART A x3
G|---------|
D|---------|
A|-----7-5-|
E|-5-7-----|


PART B x1
G|---------|
D|---------|
A|---------|
E|-5-77-3*-|


PART G x1
G|------------|
D|------------|
A|------22--2-|
E|-3-3----3---|


PART H x1
G|-------------|
D|-------------|
A|-7------575--|
E|---7---8---8-|


PART G x1
G|------------|
D|------------|
A|------22--2-|
E|-3-3----3---|


PART I x1
G|-------------|
D|-------------|
A|-------------|
E|------000002-|


PART J x1
G|---------------------------------|
D|-----------------2222222-----2---|
A|---------22222225-------23335-53-|
E|-33333333------------------------|


PART G x1
G|----------------------------------|
D|----------------------------------|
A|---------22222222-----------------|
E|-33333333--------0000000000000000-|


PART A x3
G|---------|
D|---------|
A|-----7-5-|
E|-5-7-----|


PART K x1
G|--------|
D|--------|
A|--------|
E|-5-77-3-|


PART J x2
G|---------------------------------|
D|-----------------2222222-----2---|
A|---------22222225-------23335-53-|
E|-33333333------------------------|


PART G x1
G|----------------------------------|
D|----------------------------------|
A|---------22222222-----------------|
E|-33333333--------0000000000000000-|


PART J x1
G|---------------------------------|
D|-----------------2222222-----2---|
A|---------22222225-------23335-53-|
E|-33333333------------------------|


PART G x1
G|----------------------------------|
D|----------------------------------|
A|---------22222222-----------------|
E|-33333333--------0000000000000000-|


PART J x1
G|---------------------------------|
D|-----------------2222222-----2---|
A|---------22222225-------23335-53-|
E|-33333333------------------------|


PART G x1
G|----------------------------------|
D|----------------------------------|
A|---------22222222-----------------|
E|-33333333--------0000000000000000-|


PART J x1
G|---------------------------------|
D|-----------------2222222-----2---|
A|---------22222225-------23335-53-|
E|-33333333------------------------|


PART G x1
G|----------------------------------|
D|----------------------------------|
A|---------22222222-----------------|
E|-33333333--------0000000000000000-|


PART J x1
G|---------------------------------|
D|-----------------2222222-----2---|
A|---------22222225-------23335-53-|
E|-33333333------------------------|


PART G x1
G|----------------------------------|
D|----------------------------------|
A|---------22222222-----------------|
E|-33333333--------0000000000000000-|


PART J x1
G|---------------------------------|
D|-----------------2222222-----2---|
A|---------22222225-------23335-53-|
E|-33333333------------------------|


PART G x1
G|--------------------|
D|--------------------|
A|---------22222222---|
E|-33333333--------0*-|


PART L x1
G|-----------------------------------------------------------------|
D|-----------------2222222-----------------------------------------|
A|---------22222222-------33333333--------22222222-----------------|
E|-33333333-----------------------33333333--------0000000000000000-|


PART J x1
G|---------------------------------|
D|-----------------2222222-----2---|
A|---------22222225-------23335-53-|
E|-33333333------------------------|


PART G x1
G|----------------------------------|
D|----------------------------------|
A|---------22222222-----------------|
E|-33333333--------0000000000000000-|


PART J x1
G|---------------------------------|
D|-----------------2222222-----2---|
A|---------22222225-------23335-53-|
E|-33333333------------------------|


PART G x1
G|----------------------------------|
D|----------------------------------|
A|---------22222222-----------------|
E|-33333333--------0000000000000000-|


PART E x1
G|-------------------|
D|---55---5---5---55-|
A|-------------------|
E|-33---3---3---33---|


PART F x1
G|-----------------|
D|---55---5--------|
A|----------3--131-|
E|-33---3----------|


PART E x1
G|-------------------|
D|---55---5---5---55-|
A|-------------------|
E|-33---3---3---33---|


PART F x1
G|-----------------|
D|---55---5--------|
A|----------3--131-|
E|-33---3----------|
Suggest correction
Creating personal tab
Creating personal tab
You can edit any tab online and save it as your Personal.

You can edit, replace or remove any tab part or add personal notes – all changes will be seen only by you.

Personal tabs can be accessed anytime from any device, even offline.
Learn more »
comments
print report bad tab
3 comments total.
+1 reply
dakota_s_ 277 Nov 04, 2007 01:38 PM

Oh man does this song make me laugh. And great tab!

0 reply
pazaleen 10 May 26, 2014 09:29 AM

G|---------------------------------|
D|-----------------2222222-----2---|
A|---------22222225-------23335-53-|
E|-33333333------------------------|

instead of this, you can play

PART J x1
G|---------------------------------|
D|-----------------02222222-----020---|
A|---------2222222---------2333-----3-|
E|-33333333------------------------|

I think its easier

0 reply
pazaleen 10 May 26, 2014 09:30 AM

G|---------------------------------|
D|-----------------2222222-----2---|
A|---------22222225-------23335-53-|
E|-33333333------------------------|

instead of this, you can play

PART J x1
G|---------------------------------|
D|-----------------02222222-----020---|
A|---------2222222---------2333-----3-|
E|-33333333------------------------|

I think its easier

guest
You may want to rate the tab now too:
select rating
Wanna post a correction for this tab? Suggest correction