Oops, an error
Loading. Please wait.

Pull My Strings tab

version 2
version 2

Whole song

Interactive

196 views 1 this week
no commentswrite comment
1 2 3 4 5
2 more votes to show rating
add to favorites
×
Save as Personal and add changes to this tab that will be seen only by you. Learn more ›
×
You can save this tab as Personal to edit and correct it or add notes. All changes will be seen only by you. Learn more »
launch autoscroll
font size
0
reset
how to read this tab
guitar tuner
edit
Autoscroll
slow
fast
+/-
esc
set tempo
stop
Author
Band: Dead Kennedys
Song: "Pull My Strings"


e|------------------------|
B|------------------------|
G|------7--5---------7--5-|
D|------7--5---------7--5-|
A|------5--3---------5--3-|
E|-3/5---------3/5-5------| x8


"I wanna be a tool, don't need no soul..."
e|----------------------------------------7-7--3*-|
B|----------------------------------------7-7--3*-|
G|-------9--7--------9--7--------9--7-----8-8--4*-|
D|-7--9--9--7--7--9--9--7--7--9--9--7--7--9-9--5*-|
A|-7--9--7--5--7--9--7--5--7--9--7--5--7--9-9--5*-|
E|-5--7--------5--7--------5--7--------5--7-7--3*-| 
*on the last chord tabbed here (the G barre chord), he depresses and releases his 
whammy bar twice after playing the chord. Listen to the song to get the timing and feel of it. 
If you don't have a whammy bar on your guitar, don't worry about it.


e|------------------------|
B|------------------------|
G|------7--5---------7--5-|
D|------7--5---------7--5-|
A|------5--3---------5--3-|
E|-3/5---------3/5-5------| x6


e|---------------------------------------------|
B|---------------------------------------------|
G|-------9--7--------9--7--------9--7----------|
D|-7--9--9--7--7--9--9--7--7--9--9--7--7--9-9--|
A|-7--9--7--5--7--9--7--5--7--9--7--5--7--9-9--|
E|-5--7--------5--7--------5--7--------5--7-7--| 


"And here we go...drool, drool, drool..."
e|------------------------------|
B|------------------------------|
G|------------------------------|
D|-------5-5----5------5-----5--|
A|------------------------------|
E|-1-3-3-----3------3-----3-----| x3

e|---------------------------|
B|---------------------------|
G|------------------5--5-5-3-|
D|-------5-5----5---5--5-5-3-|
A|------------------3--3-3-1-|
E|-1-3-3-----3---------------|

e|-------------------------------|
B|-------------------------------|
G|-------------------------------|
D|--------5-5----5------5-----5--|
A|-------------------------------|
E|-1--3-3-----3------3-----3-----| 

e|----------------------------|
B|----------------------------|
G|-------------------5--5-5-3-|
D|--------5-5----5---5--5-5-3-|
A|-------------------3--3-3-1-|
E|-1--3-3-----3---------------|


e|------------------------|
B|------------------------|
G|------7--5---------7--5-|
D|------7--5---------7--5-|
A|------5--3---------5--3-|
E|-3/5---------3/5-5------| x6


e|----------------------------------------7-7--3-|
B|----------------------------------------7-7--3-|
G|-------9--7--------9--7--------9--7-----8-8--4-|
D|-7--9--9--7--7--9--9--7--7--9--9--7--7--9-9--5-|
A|-7--9--7--5--7--9--7--5--7--9--7--5--7--9-9--5-|
E|-5--7--------5--7--------5--7--------5--7-7--3-|


The reggae part ("Give me a toot...")
e|--3--3--7--7--7--7---8--8--|
B|--3--3--7--7--8--8---8--8--|
G|--4--4--7--7--9--9---9--9--|
D|--5--5--9--9--9--9--10-10--|
A|---------------------------|
E|---------------------------|

e|--3--3--7--7--7---7---7-|
B|--3--3--7--7--8---8---8-|
G|--4--4--7--7--9---9---9-|
D|--5--5--9--9--9---9---9-|
A|--------------7---7---7-|
E|------------------------|

"Give me a toot, I'll sell you my soul..."
e|--3--3-3-3-3-3-7--7-7-7-7-7-7--7-7-7-7-7--8---8--8--8--8--8-|
B|--3--3-3-3-3-3-7--7-7-7-7-7-8--8-8-8-8-8--8---8--8--8--8--8-|
G|--4--4-4-4-4-4-7--7-7-7-7-7-9--9-9-9-9-9--9---9--9--9--9--9-|
D|--5--5-5-5-5-5-9--9-9-9-9-9-9--9-9-9-9-9-10--10-10-10-10-10-|
A|--5--5-5-5-5-5-9--9-9-9-9-9-7--7-7-7-7-7-10--10-10-10-10-10-|
E|--3--3-3-3-3-3-7--7-7-7-7-7---------------8---8--8--8--8--8-|

"Pull my strings and I'll go far..."
e|--3--3-3-3-3-3-7--7-7-7-7-7-7--7-7-7-7-7-7-7-7-7-7-7-7-7-|
B|--3--3-3-3-3-3-7--7-7-7-7-7-8--8-8-8-8-8-8-8-8-8-8-8-8-8-|
G|--4--4-4-4-4-4-7--7-7-7-7-7-9--9-9-9-9-9-9-9-9-9-9-9-9-9-|
D|--5--5-5-5-5-5-9--9-9-9-9-9-9--9-9-9-9-9-9-9-9-9-9-9-9-9-|
A|--5--5-5-5-5-5-9--9-9-9-9-9-7--7-7-7-7-7-7-7-7-7-7-7-7-7-|
E|--3--3-3-3-3-3-7--7-7-7-7-7------------------------------|


"And when I'm rich, we'll meet Bob Hope..."
e|---------------------------------------------|
B|---------------------------------------------|
G|-------9--7--------9--7--------9--7----------|
D|-7--9--9--7--7--9--9--7--7--9--9--7--7--9-9--|
A|-7--9--7--5--7--9--7--5--7--9--7--5--7--9-9--|
E|-5--7--------5--7--------5--7--------5--7-7--| 


"Is my cock big enough, is my brain small enough..."
e|--3--------7--------7--------8--|
B|--3--------7--------8--------8--|
G|--4--------7--------9--------9--|
D|--5--------9--------9-------10--|
A|--5--------9--------7-------10--|
E|--3--------7-----------------8--| x2

e|--3--------7--------7--7-7-7-7-7-7-7-7-7-7-7-7-7-|
B|--3--------7--------8--8-8-8-8-8-8-8-8-8-8-8-8-8-|
G|--4--------7--------9--9-9-9-9-9-9-9-9-9-9-9-9-9-|
D|--5--------9--------9--9-9-9-9-9-9-9-9-9-9-9-9-9-|
A|--5--------9--------7--7-7-7-7-7-7-7-7-7-7-7-7-7-|
E|--3--------7-------------------------------------| 

e|--3--------7--------7--------8--|
B|--3--------7--------8--------8--|
G|--4--------7--------9--------9--|
D|--5--------9--------9-------10--|
A|--5--------9--------7-------10--|
E|--3--------7-----------------8--|

e|--3--------7--------7--7-7-7-7-7-7-7-7-7-7-7-7-7-|
B|--3--------7--------8--8-8-8-8-8-8-8-8-8-8-8-8-8-|
G|--4--------7--------9--9-9-9-9-9-9-9-9-9-9-9-9-9-|
D|--5--------9--------9--9-9-9-9-9-9-9-9-9-9-9-9-9-|
A|--5--------9--------7--7-7-7-7-7-7-7-7-7-7-7-7-7-|
E|--3--------7-------------------------------------| 


Solo:
e|-------------------------------------------------------------------------| 
B|----------------------------------8--------------------------------------| 
G|-------------------------777-999-9-9-12-14-14b-14b-14b-14hb-12----12--12-| 
D|-7b-7b-7b-7hb-7-5---5--7-9-------------------------------------14---14---| 
A|------------------7--7---------------------------------------------------| 
E|-------------------------------------------------------------------------| 

e|---------------------------------------------15b-15b-15b-15hb-12------12-| 
B|---------------------------------1717-----17--------------------151215---| 
G|------------------------------16-----16-16-------------------------------| 
D|1412-----------------1212/14---------------------------------------------| 
A|------14131210-----------------------------------------------------------| 
E|---------------10-1212---------------------------------------------------| 

e|----------------16-----------------------------16-----16----16----16-18hb| 
B|-14hb-15b-15b-17-----16-18-16-18--------16-16b----16b----18----18--------| 
G|------------------16-------------1715------------------------------------| 
D|-------------------------------------1815--------------------------------| 
A|-------------------------------------------------------------------------| 
E|-------------------------------------------------------------------------|

e|-18hb-18hb-|-1916---|----16-18-18hb-18hb-18hb-212121- 
B|-----------|-----18-|-18----------------------------- 
G|-----------|-- * ---|-------------------------------- 
D|-----------|--------|-------------------------------- 
A|-----------|-5x-----|-------------------------------- 
E|-----------|--FAST--|-------------------------------- 

e------------------------------| 
b-1715----------------15--1517-| 
g-----1614-------14-16--16-----| 
d---------171417---------------| 
a------------------------------| 
e------------------------------| 

e|-15-------|--------|------------------------------------------------------| 
B|---17-----|--------|-------17----17--1515hb15b---17--17---1719------------|
G|-----16---|-161514-|-16-14---------16----------16--16--16------1617161616-|
D|-------14-|--------|-------17-14------------------------------------------| 
A|----------|--alot -|------------------------------------------------------| 
E|----------|--FAST--|------------------------------------------------------|


"Give me a toot, I'll sell you my soul..."
e|--3--3-3-3-3-3-7--7-7-7-7-7-7--7-7-7-7-7--8---8--8--8--8--8-|
B|--3--3-3-3-3-3-7--7-7-7-7-7-8--8-8-8-8-8--8---8--8--8--8--8-|
G|--4--4-4-4-4-4-7--7-7-7-7-7-9--9-9-9-9-9--9---9--9--9--9--9-|
D|--5--5-5-5-5-5-9--9-9-9-9-9-9--9-9-9-9-9-10--10-10-10-10-10-|
A|--5--5-5-5-5-5-9--9-9-9-9-9-7--7-7-7-7-7-10--10-10-10-10-10-|
E|--3--3-3-3-3-3-7--7-7-7-7-7---------------8---8--8--8--8--8-|

e|--3--3-3-3-3-3-7--7-7-7-7-7-7--7-7-7-7-7-7-7-7-7-7-7-7-7-|
B|--3--3-3-3-3-3-7--7-7-7-7-7-8--8-8-8-8-8-8-8-8-8-8-8-8-8-|
G|--4--4-4-4-4-4-7--7-7-7-7-7-9--9-9-9-9-9-9-9-9-9-9-9-9-9-|
D|--5--5-5-5-5-5-9--9-9-9-9-9-9--9-9-9-9-9-9-9-9-9-9-9-9-9-|
A|--5--5-5-5-5-5-9--9-9-9-9-9-7--7-7-7-7-7-7-7-7-7-7-7-7-7-|
E|--3--3-3-3-3-3-7--7-7-7-7-7------------------------------| 
(repeat these last two bars of tab twice: "One more time!")


"And drool, drool, drool..."
e|----------------------------------------------------|
B|----------------------------------------------------|
G|-------------------------------------------5--5-5-3-|
D|-------5-5----5-----5-----5-------5-5----5-5--5-5-3-|
A|-------------------------------------------3--3-3-1-|
E|-1-3-3-----3-----3-----3----1-3-3-----3-------------| x2

End of song! Hope this was helpful. DK rules! :)
Suggest correction
Creating personal tab
Creating personal tab
You can edit any tab online and save it as your Personal.

You can edit, replace or remove any tab part or add personal notes – all changes will be seen only by you.

Personal tabs can be accessed anytime from any device, even offline.
Learn more »
Give kudos to tab author, rate the tab!
1 2 3 4 5
comments
print report bad tab
guest
You may want to rate the tab now too:
select rating
Wanna post a correction for this tab? Suggest correction