Oops, an error
Loading. Please wait.

Rawhide Bass Tab

25 views 6 this week
no commentswrite comment
1 2 3 4 5
3 more votes to show rating
add to favorites
launch autoscroll
font size
0
reset
guitar tuner
Autoscroll
slow
fast
+/-
esc
set tempo
stop
Help us to improve Ultimate-Guitar.com Take our survey!
×
Author
Difficulty
novice
                             DEAD KENNEDYS - RAWHIDE

Tabbed by: Rottney (reconssuck)
E-mail: reconssuck@hotmail.de

Artist: Dead Kennedys
Song: Rawhide
Album: The 1978 Demos
Bassist: Klaus Flouride





[Main Riff] x22

G|-----|-----|-----|-----|
D|-----|-----|-----|-----|
A|-----|-----|-----|-----|
E|-0-3-|-0-3-|-0-3-|-0-3-|

[Pre-Chorus]

G|-----------|
D|-----------|
A|-----------|
E|-7-7-7-7-7-|


[Chorus]

G|---------------|-----------------|-----------------|-------------------|
D|-------2-------|-----------------|-----------------|-------------------|
A|---2-3---3-2-0-|-----------------|-----------------|-------------------|
E|-3-------------|-3-3-3-3-2-2-0-0-|-3-3-3-5-7-7-7-7-|-7-7-5-5-7-7-3-3-0-|


[Main Riff] x16

G|-----|-----|-----|-----|
D|-----|-----|-----|-----|
A|-----|-----|-----|-----|
E|-0-3-|-0-3-|-0-3-|-0-3-|

[Pre-Chorus]

G|-----------|
D|-----------|
A|-----------|
E|-7-7-7-7-7-|

[Chorus]


G|---------------|-----------------|-----------------|-------------------|
D|-------2-------|-----------------|-----------------|-------------------|
A|---2-3---3-2-0-|-----------------|-----------------|-------------------|
E|-3-------------|-3-3-3-3-2-2-0-0-|-3-3-3-5-7-7-7-7-|-7-7-5-5-7-7-3-3-0-|

G|---------------|------------|----------------|
D|---------------|------------|----------------|
A|---------------|------------|----------------|
E|-0-0-0-0-0-0-0-|3-3-2-2-0-0-|-3-3-3-7-7-7-0--|


[Bridge] x2

G|-------|-------|-------|-------|
D|-------|-------|-------|-------|
A|-------|-2-2-2-|-------|-------|
E|-0-0-0-|-------|-3-3-3-|-0-0-0-|

[Bridge End]

G|-------|-----------|
D|-------|-----------|
A|-------|-----------|
E|-3-3-3-|-7-7-7-7-3-|



[Main Riff] x11

G|-----|-----|-----|-----|
D|-----|-----|-----|-----|
A|-----|-----|-----|-----|
E|-0-3-|-0-3-|-0-3-|-0-3-|

[End]

G|--------|----|
D|--------|----|
A|--------|----|
E|-0------|-0--|






That's All
Enjoy and Rate
Suggest correction
Give kudos to tab author, rate the tab!
1 2 3 4 5
comments
print report bad tab
guest
You may want to rate the tab now too:
select rating
Wanna post a correction for this tab? Suggest correction