Oops, an error
Loading. Please wait.

Saturday Night Holocaust Tab

840 views 1 this week
no commentswrite comment
1 2 3 4 5
2 more votes to show rating
add to favorites
launch autoscroll
font size
0
reset
how to read this tab
guitar tuner
Autoscroll
slow
fast
+/-
esc
set tempo
stop
Help us to improve Ultimate-Guitar.com Take our survey!
×
Author
Difficulty
novice
Verse 1
E------------------------------------------------------------|
B------------------------------------------------------------|
G------------------------------------------------------------|
D--7--7-7-7-7-7-7-7--7-8--8-8-8-7--7-7-7-7-7-7-7--7-5--5-5-5-|
A--7--7-7-7-7-7-7-7--7-8--8-8-8-7--7-7-7-7-7-7-7--7-5--5-5-5-|
E--5--5-5-5-5-5-5-5--5-6--6-6-6-5--5-5-5-5-5-5-5--5-3--3-3-3-|

Riff 1
E------------------------------------------------------|
B------------------------------------------------------|
G------------------------------------------------------|
D-----------------------------------------------7--5---|
A----------------5-7-----------------------5-7---------|
E--5-5-5-7-8-7-8------3--5---5-5-5-7-8-7-8-------------|

Chorus 1
E----------------------------------------------------|
B----------------------------------------------------|
G----------------------------------------------------|
D--7------------7------------5------------7----------|
A--7------------7------------5------------7----------|
E--5------------5------------3------------5----------|

Riff 2
E-----------------------------------------------------|
B-------------6-6-6-6-6-6-6------------10101010101010-|
G-------------5-5-5-5-5-5-5------------9-9-9-9-9-9-9--|
D--7-7-5-5-3----------------5-5-3-3-7-----------------|
A--7-7-5-5-3----------------5-5-3-3-7-----------------|
E--5-5-3-3-1----------------3-3-1-1-5-----------------|

E-------------------------------------------|
B-------------6-6-6-6-6-6-6-----------------|
G-------------5-5-5-5-5-5-5---------5---5---|
D--7-7-5-5-3----------------5-5-3-3-5-5-5-5-|
A--7-7-5-5-3----------------5-5-3-3-3-5-3-5-|
E--5-5-3-3-1----------------3-3-1-1---3---3-|

Verse 2
E------------------------------------------------------------|
B------------------------------------------------------------|
G------------------------------------------------------------|
D--8--8-8-8-8-8-8-8--8-9--9-9-9-8--8-8-8-8-8-8-8--8-6--6-6-6-|
A--8--8-8-8-8-8-8-8--8-9--9-9-9-8--8-8-8-8-8-8-8--8-6--6-6-6-|
E--6--6-6-6-6-6-6-6--6-7--7-7-7-6--6-6-6-6-6-6-6--6-4--4-4-4-|

Riff 3
E------------------------------------------------------|
B------------------------------------------------------|
G------------------------------------------------------|
D-----------------------------------------------8--6---|
A----------------6-8-----------------------6-8---------|
E--6-6-6-8-9-8-9------4--6---6-6-6-8-9-8-9-------------|

Chorus 2
E----------------------------------------------------|
B----------------------------------------------------|
G----------------------------------------------------|
D--8------------8------------6------------8----------|
A--8------------8------------6------------8----------|
E--6------------6------------4------------6----------|

Riff 4
E--------------------------------------------------------------|
B--------------------------------------------------------------|
G--------------------------------------------------------------|
D--3--3-3-3-3-3-3-2--2-2-2-2-2-2-8--8-8-8-8-8-8-7--7-7-7-7-7-7-|
A--3--3-3-3-3-3-3-2--2-2-2-2-2-2-8--8-8-8-8-8-8-7--7-7-7-7-7-7-|
E--1--1-1-1-1-1-1-0--0-0-0-0-0-0-6--6-6-6-6-6-6-5--5-5-5-5-5-5-|

E--------------------------------------------------------------|
B--------------------------------------------------------------|
G--------------------------------------------------------------|
D--3--3-3-3-3-3-3-2--2-2-2-2-2-2-10-1010101010109--9-9-9-9-9-9-|
A--3--3-3-3-3-3-3-2--2-2-2-2-2-2-10-1010101010109--9-9-9-9-9-9-|
E--1--1-1-1-1-1-1-0--0-0-0-0-0-0-8--8-8-8-8-8-8-7--7-7-7-7-7-7-|

Riff 5
E--------------------------------------------------------------|
B--------------------------------------------------------------|
G--------------------------------------------------------------|
D--8--8-8-8-8-8-8-7--7-7-7-7-7-7-6--6-6-6-6-6-6-7--7-7-7-7-7-7-|
A--8--8-8-8-8-8-8-7--7-7-7-7-7-7-6--6-6-6-6-6-6-7--7-7-7-7-7-7-|
E--6--6-6-6-6-6-6-5--5-5-5-5-5-5-4--4-4-4-4-4-4-5--5-5-5-5-5-5-|

Outro
All Palm Muted
E---------------------------------------------------------------------|
B---------------------------------------------------------------------|
G---------------------------------------------------------------------|
D---------------------------------------------------------------------|
A--------9--8---------9--10--9--10---------9--8---------9--10--9--10--|
E--7-6---------6--7-----------------6--7---------6--7-----------------|

E-------------------------------------------|
B-------------------------------------------|
G-------------------------------------------|
D-------------------------------------------|
A---------7--6--------7--8--7--8------------|
E--4--5---------4--5--------------4---5/7---|

Verse 1  x6
Riff 1   x1
Verse 1  x2
Chorus 1 x1
Riff 2   x1
Verse 1  x2
Verse 2  x2
Riff 3   x1
Chorus 2 x1
Riff 4   x2
Riff 5   x3
Outro    x1
Suggest correction
Give kudos to tab author, rate the tab!
1 2 3 4 5
comments
print report bad tab
guest
You may want to rate the tab now too:
select rating
Wanna post a correction for this tab? Suggest correction