Oops, an error
Loading. Please wait.

Soup Is Good Food bass

version 2
version 2

Whole song

Interactive

2,496 views 9 this week
2 commentsread comments
1 2 3 4 5
x 6
add to favorites
×
Save as Personal and add changes to this tab that will be seen only by you. Learn more ›
×
You can save this tab as Personal to edit and correct it or add notes. All changes will be seen only by you. Learn more »
launch autoscroll
font size
0
reset
guitar tuner
edit
Autoscroll
slow
fast
+/-
esc
set tempo
stop
Author
Difficulty
This Song Is Very Easy! But Is Always Tabbed Wrong so here It Is.

Come In After Guitar Intro

Verse
--------/--------/--------|
------3-/-----3--/-----3--|
-2------/2-------/2-------|         Just Keep Playing this Till He Says
---1-1--/--1-1---/--1-1---|             "Gotta Put him In The Past!"


Pre-Chorus
-------------57---------------57--------------57---------------|
------------7----------------7---------------7-----------------|
-------6--5-------------6--5-------------6--5-----------6-6----|
-5--7-------------5--7-------------5--7------------5--7--------|

Chorus
---------------/---------------/---------------/----|
---------------/---------------/---------------/----|
-2-2-4-4-5-5-1~/-2-2-4-4-5-5-1~/-2-2-4-4-5-5-1~/-2--|
---------------/---------------/---------------/----|

Bridge
-------------------/-------------------------------------------|
-------------------/---------------------------------222-------|
----02320---3-20---/------0-000-333-2-0--------0-000----3-20---|
--02-----02-----20-/-2-22--------------20--2-22-------------2--|

----------------------|
----------------------|
------0-000-333-2-0---|
-2-22--------------20-|

2nd Verse
-------2-2-/-------2-2-/-------2-2-/-------2-2-|
--4/3------/--4/3------/--4/3------/--4/3------|
2----4-----/2----4-----/2----4-----/2----4-----|
-----------/-----------/-----------/-----------|

Outro
-------------|
-------------|
------00-22--|    Play Til end
-2222--------|

Order
Verse
Pre-Chorus
Chorus
Verse
Pre-Chorus
Chorus
Bridge
2nd Verse
Pre-Chorus  (X2)
Chorus  (Play Alot more Than Usuall)
2nd Verse
Outro  (End On Second Fret)

            
            
Suggest correction
Creating personal tab
Creating personal tab
You can edit any tab online and save it as your Personal.

You can edit, replace or remove any tab part or add personal notes – all changes will be seen only by you.

Personal tabs can be accessed anytime from any device, even offline.
Learn more »
comments
print report bad tab
2 comments total.
0 reply
dakota_s_ 277 Jan 17, 2008 04:41 PM

Love this song. By far my favourite song by them and the tab is if not perfect pretty god damn close. Great Job.

0 reply
Peedunkey 178 Mar 10, 2013 03:52 PM

Almost perfect, awesome.

Only things I can see that are wrong are that in the last two choruses (at least) he's playing octaves, like

---4----6----7----/-|
------------------/-|
-2--2-4--4-5--5-1~/-|
------------------/-|

Also, on the outro it's

-------------|
-------------|
------00-22--|
-1111--------|

guest
You may want to rate the tab now too:
select rating
Wanna post a correction for this tab? Suggest correction