Oops, an error
Loading. Please wait.

Take This Job And Shove It tab

version 2
version 2

Whole song

210 views 1 this week
no commentswrite comment
1 2 3 4 5
3 more votes to show rating
add to favorites
×
Save as Personal and add changes to this tab that will be seen only by you. Learn more ›
×
You can save this tab as Personal to edit and correct it or add notes. All changes will be seen only by you. Learn more »
launch autoscroll
font size
0
reset
how to read this tab
guitar tuner
edit
Autoscroll
slow
fast
+/-
esc
set tempo
stop
take this job and shove it



The Dead Kennedys



tabbed by Rudy Guzman



guzman_84@hotmail.com






take this job and shove it!
e---------------------------5-|
B---------------------------5-|
G---------------------------6-|
D---------------------------7-|
A---------------------------7-|
E---------------------------5-|

e-5-5-5-5-5-5-5-5-5-5-5-5-5-5-5-5-5-5-5-5-5-5-5--3-3-2-2-0-0-0-0-0-0-|
B-5-5-5-5-5-5-5-5-5-5-5-5-5-5-5-5-5-5-5-5-5-5-5--3-3-2-2-0-0-0-0-0-0-|
G-6-6-6-6-6-6-6-6-6-6-6-6-6-6-6-6-6-6-6-6-6-6-6--4-4-3-3-1-1-1-1-1-1-|
D-7-7-7-7-7-7-7-7-7-7-7-7-7-7-7-7-7-7-7-7-7-7-7--5-5-4-4-2-2-2-2-2-2-|
A-7-7-7-7-7-7-7-7-7-7-7-7-7-7-7-7-7-7-7-7-7-7-7--5-5-4-4-2-2-2-2-2-2-|
E-5-5-5-5-5-5-5-0-5-5-5-5-5-5-5-0-5-5-5-5-5-5-5--3-3-2-2-0-0-0-0-0-0-|

e-5-5-5-5-5-5-5-5-5-5-5-5-5-5-5-5-5-5-5-5-5-5-5------------5-5-5-5-5--0-0-0-0-0-|
B-5-5-5-5-5-5-5-5-5-5-5-5-5-5-5-5-5-5-5-5-5-5-5--6-6-6-6-6-5-5-5-5-5--0-0-0-0-0-|
G-6-6-6-6-6-6-6-6-6-6-6-6-6-6-6-6-6-6-6-6-6-6-6--7-7-7-7-7-6-6-6-6-6--1-1-1-1-1-|
D-7-7-7-7-7-7-7-7-7-7-7-7-7-7-7-7-7-7-7-7-7-7-7--7-7-7-7-7-7-7-7-7-7--2-2-2-2-2-|
A-7-7-7-7-7-7-7-7-7-7-7-7-7-7-7-7-7-7-7-7-7-7-7--5-5-5-5-5-7-7-7-7-7--2-2-2-2-2-|
E-5-5-5-5-5-5-5-0-5-5-5-5-5-5-5-0-5-5-5-5-5-5-5------------5-5-5-5-5--0-0-0-0-0-|

e-5-5-5-5-5-5-5-5-5-5-5-5-5-5-5-5-5-5-5-5-5-5-5----5-|
B-5-5-5-5-5-5-5-5-5-5-5-5-5-5-5-5-5-5-5-5-5-5-5----5-|
G-6-6-6-6-6-6-6-6-6-6-6-6-6-6-6-6-6-6-6-6-6-6-6----6-|
D-7-7-7-7-7-7-7-7-7-7-7-7-7-7-7-7-7-7-7-7-7-7-7----7-|
A-7-7-7-7-7-7-7-7-7-7-7-7-7-7-7-7-7-7-7-7-7-7-7----7-|
E-5-5-5-5-5-5-5-0-5-5-5-5-5-5-5-0-5-5-5-5-5-5-5--0-5-|

take this job and shove it!
e---------------------------5-|
B---------------------------5-|
G---------------------------6-|
D---------------------------7-|
A---------------------------7-|
E---------------------------5-|

e-5-5-5-5-5-5-5-5-5-5-5-5-5-5-5-5-5-5-5-5-5-5-5--3-3-2-2-0-0-0-0-0-0-|
B-5-5-5-5-5-5-5-5-5-5-5-5-5-5-5-5-5-5-5-5-5-5-5--3-3-2-2-0-0-0-0-0-0-|
G-6-6-6-6-6-6-6-6-6-6-6-6-6-6-6-6-6-6-6-6-6-6-6--4-4-3-3-1-1-1-1-1-1-|
D-7-7-7-7-7-7-7-7-7-7-7-7-7-7-7-7-7-7-7-7-7-7-7--5-5-4-4-2-2-2-2-2-2-|
A-7-7-7-7-7-7-7-7-7-7-7-7-7-7-7-7-7-7-7-7-7-7-7--5-5-4-4-2-2-2-2-2-2-|
E-5-5-5-5-5-5-5-0-5-5-5-5-5-5-5-0-5-5-5-5-5-5-5--3-3-2-2-0-0-0-0-0-0-|

e-5-5-5-5-5-5-5-5-5-5-5-5-5-5-5-5-5-5-5-5-5-5-5------------5-5-5-5-5--0-0-0-0-0-|
B-5-5-5-5-5-5-5-5-5-5-5-5-5-5-5-5-5-5-5-5-5-5-5--6-6-6-6-6-5-5-5-5-5--0-0-0-0-0-|
G-6-6-6-6-6-6-6-6-6-6-6-6-6-6-6-6-6-6-6-6-6-6-6--7-7-7-7-7-6-6-6-6-6--1-1-1-1-1-|
D-7-7-7-7-7-7-7-7-7-7-7-7-7-7-7-7-7-7-7-7-7-7-7--7-7-7-7-7-7-7-7-7-7--2-2-2-2-2-|
A-7-7-7-7-7-7-7-7-7-7-7-7-7-7-7-7-7-7-7-7-7-7-7--5-5-5-5-5-7-7-7-7-7--2-2-2-2-2-|
E-5-5-5-5-5-5-5-0-5-5-5-5-5-5-5-0-5-5-5-5-5-5-5------------5-5-5-5-5--0-0-0-0-0-|

e-5-5-5-5-5-5-5-5-5-5-5-5-5-5-5-5-5-5-5-5-5-5-5----5-|
B-5-5-5-5-5-5-5-5-5-5-5-5-5-5-5-5-5-5-5-5-5-5-5----5-|
G-6-6-6-6-6-6-6-6-6-6-6-6-6-6-6-6-6-6-6-6-6-6-6----6-|
D-7-7-7-7-7-7-7-7-7-7-7-7-7-7-7-7-7-7-7-7-7-7-7----7-|
A-7-7-7-7-7-7-7-7-7-7-7-7-7-7-7-7-7-7-7-7-7-7-7----7-|
E-5-5-5-5-5-5-5-0-5-5-5-5-5-5-5-0-5-5-5-5-5-5-5--0-5-|


bass

2 times
e-5-5-5-5-5-5-5-5-5-5-5-5-5-5-5-5-5-5-5-5-5-5-5-----|
B-5-5-5-5-5-5-5-5-5-5-5-5-5-5-5-5-5-5-5-5-5-5-5-----|
G-6-6-6-6-6-6-6-6-6-6-6-6-6-6-6-6-6-6-6-6-6-6-6-----|
D-7-7-7-7-7-7-7-7-7-7-7-7-7-7-7-7-7-7-7-7-7-7-7-----|
A-7-7-7-7-7-7-7-7-7-7-7-7-7-7-7-7-7-7-7-7-7-7-7-----|
E-5-5-5-5-5-5-5-0-5-5-5-5-5-5-5-0-5-5-5-5-5-5-5--0--|

e-5-5-5-5-5-5-5-5-5-5-5-5-5-5-5-5-5-5-5-5-5-5-5--3-3-2-2-0-0-0-0-0-0-|
B-5-5-5-5-5-5-5-5-5-5-5-5-5-5-5-5-5-5-5-5-5-5-5--3-3-2-2-0-0-0-0-0-0-|
G-6-6-6-6-6-6-6-6-6-6-6-6-6-6-6-6-6-6-6-6-6-6-6--4-4-3-3-1-1-1-1-1-1-|
D-7-7-7-7-7-7-7-7-7-7-7-7-7-7-7-7-7-7-7-7-7-7-7--5-5-4-4-2-2-2-2-2-2-|
A-7-7-7-7-7-7-7-7-7-7-7-7-7-7-7-7-7-7-7-7-7-7-7--5-5-4-4-2-2-2-2-2-2-|
E-5-5-5-5-5-5-5-0-5-5-5-5-5-5-5-0-5-5-5-5-5-5-5--3-3-2-2-0-0-0-0-0-0-|

e-5-5-5-5-5-5-5-5-5-5-5-5-5-5-5-5-5-5-5-5-5-5-5------------5-5-5-5-5--0-0-0-0-0-|
B-5-5-5-5-5-5-5-5-5-5-5-5-5-5-5-5-5-5-5-5-5-5-5--6-6-6-6-6-5-5-5-5-5--0-0-0-0-0-|
G-6-6-6-6-6-6-6-6-6-6-6-6-6-6-6-6-6-6-6-6-6-6-6--7-7-7-7-7-6-6-6-6-6--1-1-1-1-1-|
D-7-7-7-7-7-7-7-7-7-7-7-7-7-7-7-7-7-7-7-7-7-7-7--7-7-7-7-7-7-7-7-7-7--2-2-2-2-2-|
A-7-7-7-7-7-7-7-7-7-7-7-7-7-7-7-7-7-7-7-7-7-7-7--5-5-5-5-5-7-7-7-7-7--2-2-2-2-2-|
E-5-5-5-5-5-5-5-0-5-5-5-5-5-5-5-0-5-5-5-5-5-5-5------------5-5-5-5-5--0-0-0-0-0-|

e-5-5-5-5-5-5-5-5-5-5-5-5-5-5-5-5-5-5-5-5-5-5-5----5-|
B-5-5-5-5-5-5-5-5-5-5-5-5-5-5-5-5-5-5-5-5-5-5-5----5-|
G-6-6-6-6-6-6-6-6-6-6-6-6-6-6-6-6-6-6-6-6-6-6-6----6-|
D-7-7-7-7-7-7-7-7-7-7-7-7-7-7-7-7-7-7-7-7-7-7-7----7-|
A-7-7-7-7-7-7-7-7-7-7-7-7-7-7-7-7-7-7-7-7-7-7-7----7-|
E-5-5-5-5-5-5-5-0-5-5-5-5-5-5-5-0-5-5-5-5-5-5-5--0-5-|

take this job and shove it!
e---------------------------5-|
B---------------------------5-|
G---------------------------6-|
D---------------------------7-|
A---------------------------7-|
E---------------------------5-|

e-5-5-5-5-5-5-5-5-5-5-5-5-5-5-5-5-5-5-5-5-5-5-5--3-3-2-2-0-0-0-0-0-0-|
B-5-5-5-5-5-5-5-5-5-5-5-5-5-5-5-5-5-5-5-5-5-5-5--3-3-2-2-0-0-0-0-0-0-|
G-6-6-6-6-6-6-6-6-6-6-6-6-6-6-6-6-6-6-6-6-6-6-6--4-4-3-3-1-1-1-1-1-1-|
D-7-7-7-7-7-7-7-7-7-7-7-7-7-7-7-7-7-7-7-7-7-7-7--5-5-4-4-2-2-2-2-2-2-|
A-7-7-7-7-7-7-7-7-7-7-7-7-7-7-7-7-7-7-7-7-7-7-7--5-5-4-4-2-2-2-2-2-2-|
E-5-5-5-5-5-5-5-0-5-5-5-5-5-5-5-0-5-5-5-5-5-5-5--3-3-2-2-0-0-0-0-0-0-|

e-5-5-5-5-5-5-5-5-5-5-5-5-5-5-5-5-5-5-5-5-5-5-5------------5-5-5-5-5--0-0-0-0-0-|
B-5-5-5-5-5-5-5-5-5-5-5-5-5-5-5-5-5-5-5-5-5-5-5--6-6-6-6-6-5-5-5-5-5--0-0-0-0-0-|
G-6-6-6-6-6-6-6-6-6-6-6-6-6-6-6-6-6-6-6-6-6-6-6--7-7-7-7-7-6-6-6-6-6--1-1-1-1-1-|
D-7-7-7-7-7-7-7-7-7-7-7-7-7-7-7-7-7-7-7-7-7-7-7--7-7-7-7-7-7-7-7-7-7--2-2-2-2-2-|
A-7-7-7-7-7-7-7-7-7-7-7-7-7-7-7-7-7-7-7-7-7-7-7--5-5-5-5-5-7-7-7-7-7--2-2-2-2-2-|
E-5-5-5-5-5-5-5-0-5-5-5-5-5-5-5-0-5-5-5-5-5-5-5------------5-5-5-5-5--0-0-0-0-0-|

e-5-5-5-5-5-5-5-5-5-5-5-5-5-5-5-5-5-5-5-5-5-5-5----5-|
B-5-5-5-5-5-5-5-5-5-5-5-5-5-5-5-5-5-5-5-5-5-5-5----5-|
G-6-6-6-6-6-6-6-6-6-6-6-6-6-6-6-6-6-6-6-6-6-6-6----6-|
D-7-7-7-7-7-7-7-7-7-7-7-7-7-7-7-7-7-7-7-7-7-7-7----7-|
A-7-7-7-7-7-7-7-7-7-7-7-7-7-7-7-7-7-7-7-7-7-7-7----7-|
E-5-5-5-5-5-5-5-0-5-5-5-5-5-5-5-0-5-5-5-5-5-5-5--0-5-|

2 times
e-5-5-5-5-5-5-5-5-5-5-5-5-5-5-5-5-5-5-5-5-5-5-5-----|
B-5-5-5-5-5-5-5-5-5-5-5-5-5-5-5-5-5-5-5-5-5-5-5-----|
G-6-6-6-6-6-6-6-6-6-6-6-6-6-6-6-6-6-6-6-6-6-6-6-----|
D-7-7-7-7-7-7-7-7-7-7-7-7-7-7-7-7-7-7-7-7-7-7-7-----|
A-7-7-7-7-7-7-7-7-7-7-7-7-7-7-7-7-7-7-7-7-7-7-7-----|
E-5-5-5-5-5-5-5-0-5-5-5-5-5-5-5-0-5-5-5-5-5-5-5--0--|

e-5-5-5-5-5-5-5-5-5-5-5-5-5-5-5-5-5-5-5-5-5-5-5--3-3-2-2-0-0-0-0-0-0-|
B-5-5-5-5-5-5-5-5-5-5-5-5-5-5-5-5-5-5-5-5-5-5-5--3-3-2-2-0-0-0-0-0-0-|
G-6-6-6-6-6-6-6-6-6-6-6-6-6-6-6-6-6-6-6-6-6-6-6--4-4-3-3-1-1-1-1-1-1-|
D-7-7-7-7-7-7-7-7-7-7-7-7-7-7-7-7-7-7-7-7-7-7-7--5-5-4-4-2-2-2-2-2-2-|
A-7-7-7-7-7-7-7-7-7-7-7-7-7-7-7-7-7-7-7-7-7-7-7--5-5-4-4-2-2-2-2-2-2-|
E-5-5-5-5-5-5-5-0-5-5-5-5-5-5-5-0-5-5-5-5-5-5-5--3-3-2-2-0-0-0-0-0-0-|

e-5-5-5-5-5-5-5-5-5-5-5-5-5-5-5-5-5-5-5-5-5-5-5------------5-5-5-5-5--0-0-0-0-0-|
B-5-5-5-5-5-5-5-5-5-5-5-5-5-5-5-5-5-5-5-5-5-5-5--6-6-6-6-6-5-5-5-5-5--0-0-0-0-0-|
G-6-6-6-6-6-6-6-6-6-6-6-6-6-6-6-6-6-6-6-6-6-6-6--7-7-7-7-7-6-6-6-6-6--1-1-1-1-1-|
D-7-7-7-7-7-7-7-7-7-7-7-7-7-7-7-7-7-7-7-7-7-7-7--7-7-7-7-7-7-7-7-7-7--2-2-2-2-2-|
A-7-7-7-7-7-7-7-7-7-7-7-7-7-7-7-7-7-7-7-7-7-7-7--5-5-5-5-5-7-7-7-7-7--2-2-2-2-2-|
E-5-5-5-5-5-5-5-0-5-5-5-5-5-5-5-0-5-5-5-5-5-5-5------------5-5-5-5-5--0-0-0-0-0-|

e-5-5-5-5-5-5-5-5-5-5-5-5-5-5-5-5-5-5-5-5-5-5-5----5-|
B-5-5-5-5-5-5-5-5-5-5-5-5-5-5-5-5-5-5-5-5-5-5-5----5-|
G-6-6-6-6-6-6-6-6-6-6-6-6-6-6-6-6-6-6-6-6-6-6-6----6-|
D-7-7-7-7-7-7-7-7-7-7-7-7-7-7-7-7-7-7-7-7-7-7-7----7-|
A-7-7-7-7-7-7-7-7-7-7-7-7-7-7-7-7-7-7-7-7-7-7-7----7-|
E-5-5-5-5-5-5-5-0-5-5-5-5-5-5-5-0-5-5-5-5-5-5-5--0-5-|

take this job and shove it!
e---------------------------5-|
B---------------------------5-|
G---------------------------6-|
D---------------------------7-|
A---------------------------7-|
E---------------------------5-|

e-5-5-5-5-5-5-5-5-5-5-5-5-5-5-5-5-5-5-5-5-5-5-5--3-3-2-2-0-0-0-0-0-0-|
B-5-5-5-5-5-5-5-5-5-5-5-5-5-5-5-5-5-5-5-5-5-5-5--3-3-2-2-0-0-0-0-0-0-|
G-6-6-6-6-6-6-6-6-6-6-6-6-6-6-6-6-6-6-6-6-6-6-6--4-4-3-3-1-1-1-1-1-1-|
D-7-7-7-7-7-7-7-7-7-7-7-7-7-7-7-7-7-7-7-7-7-7-7--5-5-4-4-2-2-2-2-2-2-|
A-7-7-7-7-7-7-7-7-7-7-7-7-7-7-7-7-7-7-7-7-7-7-7--5-5-4-4-2-2-2-2-2-2-|
E-5-5-5-5-5-5-5-0-5-5-5-5-5-5-5-0-5-5-5-5-5-5-5--3-3-2-2-0-0-0-0-0-0-|

e-5-5-5-5-5-5-5-5-5-5-5-5-5-5-5-5-5-5-5-5-5-5-5------------5-5-5-5-5--0-0-0-0-0-|
B-5-5-5-5-5-5-5-5-5-5-5-5-5-5-5-5-5-5-5-5-5-5-5--6-6-6-6-6-5-5-5-5-5--0-0-0-0-0-|
G-6-6-6-6-6-6-6-6-6-6-6-6-6-6-6-6-6-6-6-6-6-6-6--7-7-7-7-7-6-6-6-6-6--1-1-1-1-1-|
D-7-7-7-7-7-7-7-7-7-7-7-7-7-7-7-7-7-7-7-7-7-7-7--7-7-7-7-7-7-7-7-7-7--2-2-2-2-2-|
A-7-7-7-7-7-7-7-7-7-7-7-7-7-7-7-7-7-7-7-7-7-7-7--5-5-5-5-5-7-7-7-7-7--2-2-2-2-2-|
E-5-5-5-5-5-5-5-0-5-5-5-5-5-5-5-0-5-5-5-5-5-5-5------------5-5-5-5-5--0-0-0-0-0-|

e-5-5-5-5-5-5-5-5------------5-5-5-5-5--|
B-5-5-5-5-5-5-5-5--6-6-6-6-6-5-5-5-5-5--|
G-6-6-6-6-6-6-6-6--7-7-7-7-7-6-6-6-6-6--|
D-7-7-7-7-7-7-7-7--7-7-7-7-7-7-7-7-7-7--|
A-7-7-7-7-7-7-7-7--5-5-5-5-5-7-7-7-7-7--|
E-5-5-5-5-5-5-5-0------------5-5-5-5-5--|


e-0-0-0-0-0-0-0-0-0-0-0-0-0-0-0-|
B-0-0-0-0-0-0-0-0-0-0-0-0-0-0-0-|
G-1-1-1-1-1-1-1-1-1-1-1-1-1-1-1-|
D-2-2-2-2-2-2-2-2-2-2-2-2-2-2-2-|
A-2-2-2-2-2-2-2-2-2-2-2-2-2-2-2-|
E-0-0-0-0-0-0-0-0-0-0-0-0-0-0-0-|


e-5-5-5-5-5-5-5-5-5-5-5-5-5-5----5--------------------------------------------|
B-5-5-5-5-5-5-5-5-5-5-5-5-5-5----5--------------------------------------------|
G-6-6-6-6-6-6-6-6-6-6-6-6-6-6----6--------------------------------------------|
D-7-7-7-7-7-7-7-7-7-7-7-7-7-7----7--------------------------------------------|
A-7-7-7-7-7-7-7-7-7-7-7-7-7-7----7--------------------------------------------|
E-5-5-5-5-5-5-5-5-5-5-5-5-5-5----5--------------------------------------------|
------------------------------------------------------------------------------|



hillo son mex

1999


Take this job and shove it
I ain't working here no more
My woman left and took all the reasons I was working for
You better not try to stand in my way
When I'm walking out the door
Take this job and shove it
I ain't working here no more

Take this job and shove it
I ain't working here no more
My woman left and took all the reasons I was working for
You better not try to stand in my way
When I'm walking out the door
Take this job and shove it
I ain't working here no more

They'll have you in this factory
From now on for fifty years
All this time I see my woman
Drowning in her tears
I see a lot of people who
Gotta have a piece of me
I'd give the shirt right off my back
If I had the nerve to say

Take this job and shove it
I ain't working here no more
My woman left and took all the reasons I was working for
You better not try to stand in my way
When I'm walking out the door
Take this job and shove it
I ain't working here no more

The foreman is a regular S.O.B.
The night boss he's a fool
Got brand new skinhead hair cuts
You think he's a fool
One of these days I'll blow my top
And somebody's gonna pay
I'd hate to see the look on his face
When I get the nerve to say

Take this job and shove it
I ain't working here no more
My woman left and took all the reasons I was working for
You better not try to stand in my way
When I'm walking out the door
Take this job and shove it
I ain't working here no more

Take this job and shove it
I ain't working here
Ain't working here
Ain't working here no more

            
            
Suggest correction
Creating personal tab
Creating personal tab
You can edit any tab online and save it as your Personal.

You can edit, replace or remove any tab part or add personal notes – all changes will be seen only by you.

Personal tabs can be accessed anytime from any device, even offline.
Learn more »
Give kudos to tab author, rate the tab!
1 2 3 4 5
comments
print report bad tab
guest
You may want to rate the tab now too:
select rating
Wanna post a correction for this tab? Suggest correction