Oops, an error
Loading. Please wait.

The Design Tab

1,638 views 1 this week
1 commentread comment
1 2 3 4 5
please rate
add to favorites
launch autoscroll
font size
0
reset
how to read this tab
guitar tuner
Tab Pro tools
  • play this tab
  • loop segment
  • change instrument
  • show fretboard
  • metronome
×
Best way to learn
"The Design"
Autoscroll
slow
fast
+/-
esc
set tempo
stop
Contributor
----------------------------------------------------------
             The Design - Dead Letter Circus
----------------------------------------------------------
Tabbed by: Kristyn Lee
Email: spot_the_village_loony_836@hotmail.com


Tuning: Standard

Intro
e|-------------------------------------------|
B|-------------------------------------------|
G|------------------6~-----------------------|
D|----8~-----6~------------------6-8-6~------|
A|-------------------------8~----------------|
E|-------------------------------------------|

0:15
e|---------18-18-----------------------------|
B|----18-----------16-16--18-18--------------|
G|-------------------------------------------|
D|-------------------------------------------|
A|-------------------------------------------|
E|-------------------------------------------|
0:44
e|---13-13---------------------------------------|
B|---------11-11-11-11-13-13-14-14-16-16-18-18---|
G|-----------------------------------------------|x4
D|-----------------------------------------------|
A|-----------------------------------------------|
E|-----------------------------------------------|


Chorus
     "stop i want more..."      "choose which way it falls..."
e|------------------------------------------------------------------|
B|---13131313131313131313131313/18181818181818181818181818181818----|
G|---x-x-x-x-x-x-x-x-x-x-x-x-x--x-x-x-x-x-x-x-x-x-x-x-x-x-x-x-x-----|
D|---10101010101010101010101010/15151515151515151515151515151515----|
A|------------------------------------------------------------------|
E|------------------------------------------------------------------|
    "the end of all i know..."            "footstep further away..."
e|--------------------------------------------------------------------|
B|--16161616161616161616161616161616161616\111111111111111111111111---|
G|--x-x-x-x-x-x-x-x-x-x-x-x-x-x-x-x-x-x-x--x-x-x-x-x-x-x-x-x-x-x-x----|
D|--13131313131313131313131313131313131313\8-8-8-8-8-8-8-8-8-8-8-8----|
A|--------------------------------------------------------------------|
E|--------------------------------------------------------------------|

     "but it's alright..."
e|--------------------------------|
B|---141414141414\131313131313----|
G|---x-x-x-x-x-x--x-x-x-x-x-x-----|
D|---111111111111\101010101010----|
A|--------------------------------|
E|--------------------------------|

1:29
e|-------------------------------------------|
B|---13-13--13-13--13-13--13-13\\\\\\\-------|
G|-------------------------------------------|
D|-------------------------------------------|
A|-------------------------------------------|
E|-------------------------------------------|

2nd verse
e|----------18-18----------------------------|
B|----18-18-------16-16-16-16--18-18---------|
G|-------------------------------------------|x6
D|-------------------------------------------|
A|-------------------------------------------|
E|-------------------------------------------|
      "I'm coming home..."
e|---13-13---------------------------------------|
B|---------11-11-11-11-13-13-14-14-16-16-18-18---|
G|-----------------------------------------------|x4
D|-----------------------------------------------|
A|-----------------------------------------------|
E|-----------------------------------------------|

Repeat Chorus

3:04
e|-18-18----------|
B|-------16-16----|
G|----------------|
D|----------------|
A|----------------|
E|----------------|
3:07
e|---13-13---------------------------------------|
B|---------11-11-11-11-13-13-14-14-16-16-18-18---|
G|-----------------------------------------------|x3
D|-----------------------------------------------|
A|-----------------------------------------------|
E|-----------------------------------------------|
3:18
e|---13-13-------------------13-13---------------------|
B|---------11-11-11-11-11-11-------11-11-11-11-11-11---|
G|-----------------------------------------------------|
D|-----------------------------------------------------|
A|-----------------------------------------------------|
E|-----------------------------------------------------|

3:22
     "breathing all these things i'm forgetting..."
e|-------------------------------------------------------------------|
B|---999999999999999999999999/111111111111111111111111111111111111---|
G|---xxxxxxxxxxxxxxxxxxxxxxxx-x-x-x-x-x-x-x-x-x-x-x-x-x-x-x-x-x-x----|
D|---666666666666666666666666/8-8-8-8-8-8-8-8-8-8-8-8-8-8-8-8-8-8----|
A|-------------------------------------------------------------------|
E|-------------------------------------------------------------------|
   "been too long..."   "I am all for..."
e|------------------------------------------|
B|--11111111111111111111\6666666666666666---|
G|--x-x-x-x-x-x-x-x-x-x--xxxxxxxxxxxxxxxx---|
D|--8-8-8-8-8-8-8-8-8-8-\3333333333333333---|
A|------------------------------------------|
E|------------------------------------------|
    "beginnings..i'll change..."
e|--------------------------------------------------|
B|--99999999999999999999/111111111111111111111111---|
G|--xxxxxxxxxxxxxxxxxxxx-x-x-x-x-x-x-x-x-x-x-x-x----|
D|--66666666666666666666/8-8-8-8-8-8-8-8-8-8-8-8----|
A|--------------------------------------------------|
E|--------------------------------------------------|

Repeat the above verse

3:32 - 4:04   Theres another guitar playing a sorta
              higher riff, all tremolo picked.
e|-----------------------------------------|
B|---6------13-11------9-11-9-11-13-14-----|
G|------3-----------10---------------------|
D|-----------------------------------------|
A|-----------------------------------------|
E|-----------------------------------------|
4:07- 4:32  tremolo pick this note on and off
e|----------------|
B|-------14-------|
G|----------------|
D|----------------|
A|----------------|
E|----------------|

4:32 - 4:46  tremolo pick
e|---------------------|
B|---------------------|
G|-----10--------------|
D|---------------------|
A|---------------------|
E|---------------------|

4:47   all tremolo picked
"you thought i completed you..."
e|-----------------------------|
B|---11--9--18--11--9----------|
G|---x---x--x---x---x---10-----|
D|---8---6--15--8---6----------|
A|-----------------------------|
E|-----------------------------|

If anything is unclear don't hesitate to email me.


************************************

| /   slide up
| \   slide dow
| h   hammer-on
| p   pull-off
| ~   vibrato
| +   harmonic
| x   Mute note
| b   Bend
| pb  Pre-bend
| br  Bend release
| pbr Pre-bend release
| brb Bend release bend

************************************
comments
We did not receive enough feedback on this tab! Please rate:
print report bad tab
1 2 3 4 5
1 comment total.
0 reply
AwesomeDrummer wrote on August 9 2010, 04:55 am

good tab, except in the pre-chorus section there could be an inclusion of:

e|---13-13-------------------------------------------|
B|---------11-11-*9-9-11-11-13-13-14-14-16-16-18-18---|
G|---------------------------------------------------|x3
D|---------------------------------------------------|
A|---------------------------------------------------|
E|---------------------------------------------------|

I want to post or [tab]
guest
You may want to rate the tab now too:
select rating
Please do not post tabs as comments. Select "correction" instead!