Oops, an error
Loading. Please wait.

Good Moanin tab

4,706 views 1 this week
1 commentread comment
1 2 3 4 5
1 last vote to show rating
add to favorites
×
Save as Personal and add changes to this tab that will be seen only by you. Learn more ›
×
You can save this tab as Personal to edit and correct it or add notes. All changes will be seen only by you. Learn more »
launch autoscroll
font size
0
reset
how to read this tab
guitar tuner
edit
Autoscroll
slow
fast
+/-
esc
set tempo
stop
Author
Main Riff:
E-------------------------------------------|
B-------------------------------------------|
G-------------------------------------------|
D----------------5--------------5b~---------|
A-----5h7----5h7---7--------5h7-----7-------|
E--5h7------------------5h7-----------------|

Variation:
E--------------------------------------------|
B--------------------------------------------|
G--------------------------------------------|
D----------------5---------------5b~---------|
A-----5h7----5h7---7--------5h7p5-----7------|
E--5h7------------------5h7------------------|

Riff 2
E -----------------------------------------|
B -----------------------------------------|
G -----------------------------------------|
D ---------x-----------x----------------x--|
A --5h7~---x----5h7~---x--5h7-5h7-5h7~--x--|
E ---------x-----------x----------------x--|

Throw in tons of little A Pentatonic fills in with this ^

At the end his tremelo picking some A root power chords why high up on the neck and
decending downward while using the wah. For the solo just play some smooth riffs in
A minor Pentatonic.

            
            
Suggest correction
Creating personal tab
Creating personal tab
You can edit any tab online and save it as your Personal.

You can edit, replace or remove any tab part or add personal notes – all changes will be seen only by you.

Personal tabs can be accessed anytime from any device, even offline.
Learn more »
Give kudos to tab author, rate the tab!
1 2 3 4 5
comments
print report bad tab
1 comment total.
0 reply
ddulin 34 Dec 05, 2012 03:30 PM

i think riff 2 should be like this, it sounds better

E -----------------------------------------|
B -----------------------------------------|
G -----------------------------------------|
D -----------------------------------------|
A --7--------7-----------------------------|
E ------3--------3----353------------------|

guest
You may want to rate the tab now too:
select rating
Wanna post a correction for this tab? Suggest correction