Oops, an error
Loading. Please wait.

What Needs Must Be tab

6,209 views 24 this week
4 commentsread comments
1 2 3 4 5
x 6
add to favorites
×
Save as Personal and add changes to this tab that will be seen only by you. Learn more ›
×
You can save this tab as Personal to edit and correct it or add notes. All changes will be seen only by you. Learn more »
launch autoscroll
font size
0
reset
how to read this tab
guitar tuner
edit
Autoscroll
slow
fast
+/-
esc
set tempo
stop
Author
Difficulty
Transcribed by Danleary

Standard Tuning

Key

 ^ : Bend [1/4, 1/2, 1, etc.]
 v : Bring bend back down
 / : Slide into
 \ : Slide out of
 h : Hammer on
 p : Pull Off
(-): Do not pick note
 = : Vibrato
 x : Mute
_____________________________________________________________________________

Intro/Verse

Stop the strings from ringing out. Basically this is just strumming around
an F# barre chord. It doesn't have to be done EXACTLY as written - it varies
throughout the song. Just use this as a guideline, the important thing is
getting the rhythm down. Utilize upstrokes as well as downstrokes.

0:05                   0:07
 F#
|----2----2-x---2---2----x|
|----2----2-x---2---2----x|
|----3----3-x---3---3----x|
|4-4------4-------4------x|
|4-4------4-------4------x|
|2-2------2-------2------x|
                     Repeat
_____________________________________________________________________________

Bridge

0:33                        0:36                   0:39              0:42
   E          F#             D        F#            E F#
|--0----0---x-2----2---2-----3----3-3-2----2--------0-2------2---2------|
|--0----0---x-2----2---2-----2----2-2-2----2-2-2----0-2-2----2-2-2-2-2--|
|--1----1---x-3----3---3-----3----3-3-3----3--------1-3------3----------|
|--2------2-x-4------4-------0--------4-------------2--------4----------|
|--2------2-x-4------4-------0--------4-------------2--------4----------|
|--0------0-x-2------2----------------2-------------0--------2----------|

0:42                      0:45                     0:47
   F#       E    F#         D             F#
|--2-2------0----0---------------3-x-3----2----2------|
|--2-2-2----0----0----------2----2-x-2----2----2------|
|--3-3------1----1----------3----3-x-3----3----3------|
|--4-4------2------2-2-x----0-------------4------4-4--|
|--4-4------2------2-2-x----0-------------4------4-4--|
|--2-2------0------0-0-x------------------2------2-2--|

[Back to Verse]
_____________________________________________________________________________

0:54                       0:58
   A                       E
|--5-5----5----x----5-5----0--|
|--5-5----5----x----5-5----0--|
|--6-6----6----x----6-6----1--|
|--7-7----7----x----7-7----2--|
|--------------------------2--|
|--------------------------0--|
_____________________________________________________________________________

1:29                         1:30

|2-2-2-2-2-2-2-2-2-2-2-2-2-2-2-2|
|2-2-2-2-2-2-2-2-2-2-2-2-2-2-2-2|
|3-3-3-3-3-3-3-3-3-3-3-3-3-3-3-3|
|-------------------------------|
|-------------------------------|
|-------------------------------|
_____________________________________________________________________________

Solo

2:25

Hold bend and use pinky to fret the 5

|----5------------------------|---------------------------|
|-----------5-----------------|---------------------------|
|4b6==(6)r4----4b6r4p2---2----|----2--4b6r4p2-------------|
|----------------------4---2--|2h4------------4-----2h4-2-|
|-----------------------------|-----------------2h4-------|
|-----------------------------|---------------------------|

2:31

Let that note on the 6th fret of the G string ring out like a drone.

|---------------------5--5------|-------------------------------------|
|----7-5---7-5-7-----------7----|5h7---7--7-5---7-----2---------------|
|4/6-----6----------6-----------|----6--------6---6\4---4b6r4p2---2---|
|-------------------------------|-------------------------------4-----|
|-------------------------------|-------------------------------------|
|-------------------------------|-------------------------------------|

2:37

|------------------------------|---------------------------------|
|------------------------------|---------------------------------|
|----2-----2--------2----------|-------------------9----9h11--11-|
|2h4---4/6-----2h4----4/6---6--|6/7--7/9--9/11--11---11----------|
|------------------------------|---------------------------------|
|------------------------------|---------------------------------|

2:43

|-------------------------------------|--------------------------------------|
|-------------------------------------|10-----------------------------------2|
|11-9----9-----11b13--11----9h11---11-|---11------9--------------9----9h11\--|
|-----11----11-----------11-----------|--------11---11-9-11---11---11--------|
|-------------------------------------|--------------------------------------|
|-------------------------------------|--------------------------------------|

2:48

|------------------------------|------------------------2------|
|------------------------------|----------------2--------------|
|----2-4b6r4p2-----------------|------4b6r4p2---2---4b6----2---|
|2h4-----------4--4/6--2-4-2---|----2---------4-2--------------|
|------------------------------|2-4----------------------------|
|------------------------------|-------------------------------|

2:54

|----2------------------------------|----------------------------|
|5/7------------2-------2-----------|----------------------------|
|------6\4--4/6---4b6r4---2h4p2---2-|-----2------2------2--------|
|-------------------------------4---|4--4---4--4---4--4---4--4/7-|
|-----------------------------------|----------------------------|
|-----------------------------------|----------------------------|

3:00

With wah-wah pedal

|-------------------|-----------------------------|
|---5--7--5--5h7----|-----------------------------|
|6---------------6--|6---6------------------------|
|-------------------|--9----9b11r9p7--------------|
|-------------------|----------------9-----7h9--7-|
|-------------------|------------------7h9--------|

3:06

|----5-----4---5-4----|---------------------------|
|---------------------|5-2------------------------|
|4/6---6\4---------4--|----4--2-4-----------------|
|---------------------|-------------4------2h4-2--|
|---------------------|-----------4----2h4--------|
|---------------------|---------------------------|

3:11

|--------------------|-----------------------------|
|--------------------|-----------------------------|
|--------------------|-------4b6r4p2---------------|
|4--2--4/6---2--2h4--|----2----------2--------2----|
|--------------------|2h4-----------------2h4------|
|--------------------|-----------------------------|

3:17

|--------0-----------------------|
|2--2----0-----------------------|
|2--2----1-----------------------|
|2--2----2-----------------------|
|0--0----2-----------------------|
|--------0-----------------------|

            
            
Suggest correction
Creating personal tab
Creating personal tab
You can edit any tab online and save it as your Personal.

You can edit, replace or remove any tab part or add personal notes – all changes will be seen only by you.

Personal tabs can be accessed anytime from any device, even offline.
Learn more »
comments
print report bad tab
4 comments total. Showing first comments.
+2 reply
somekindofsound 104 Nov 16, 2009 02:18 PM

U gotta do that solo man! i'm so stoked for it!

0 reply
jojosurvive 10 Dec 03, 2009 11:16 PM

No solo????????

+1 reply
danleary 853 Dec 27, 2013 12:39 AM

I finally finished the solo, sorry for the wait. Just waiting on approval.

guest
You may want to rate the tab now too:
select rating
Wanna post a correction for this tab? Suggest correction