Oops, an error
Loading. Please wait.

Unknown Passage chords

127 views 15 this week
no commentswrite comment
1 2 3 4 5
3 more votes to show rating
add to favorites
×
Save as Personal and add changes to this tab that will be seen only by you. Learn more ›
×
You can save this tab as Personal to edit and correct it or add notes. All changes will be seen only by you. Learn more »
launch autoscroll
font size
0
reset
transpose
0
reset
simplify chords
display chords
guitar tuner
edit
Autoscroll
slow
fast
+/-
esc
set tempo
stop
Author
Strumming
There is no strumming pattern for this song yet. and get +5 IQ
Unknown Passage (Fred Cole)

Version from „Crack In The System“ LP!

CHORDS:
E|--------------------------------------------------|
B|-3-----3----3-------3------------------------3----|
G|-2-----0----0-------2------------------------2----|
D|-0-----2----0-------0-----0—0h3/0-0-0-----0--0----|
A|-0-----3----2-------0-0-3—---------3---0-3---0----|
E|--------------------------------------------------|
   D   Cadd9  Em7     D (+riff)


[Intro]

E|-6/5-------------------------------------------------------|
B|-----6/5---5h6-5--5/3--2/3-3-3------------------------3----|
G|---------------------------2-2------------------------2----|
D|---------------------------0-0------0—0h3/0-0-0-----0-0----|
A|-----------------------------0--0-3—---------3---0-3--0----|
E|------------------------------------------------------0----|

E|-----------------------------------------------------------|
B|-3h5-5h6--6--5-5-5h6/5--3-2-3------------------------------|
G|----------------------------2------------------------------|
D|----------------------------0-------0—0h3/0-0-0-0-----0----|
A|----------------------------0---0-3—-----------3---0-3-----|
E|-----------------------------------------------------------|


D
There's a red light on the hill
Cadd9       Em7              D +riff
     And a bridge out going down
D
There's a city limits marker
Cadd9      Em7         D +riff
     Of an unfamiliar town
D
With my head slightly bent
Cadd9     Em7            D +riff
    I can see it in the lights

D
Unknown passage
Cadd9           Em7               D +riff
Cuttin' like a knife through the night


D
Headlights on the highway
Cadd9           Em7         D +riff
     There's a mist coming down
D
I can hear someone crying
Cadd9 Em7              D +riff
         I know that sound
D
It's the morning before daybreak
Cadd9           Em7            D +riff
     A hundred miles down the line

D
Unknown passage
Cadd9           Em7               D
Cuttin' like a knife through the night


[Solo]


D
Asked "Where are you going?"
Cadd9  Em7             D +riff
      Somewhere  far away
D
She was standing at the window
Cadd9   Em7              D +riff
     I won't forget her face
D
With my suitcase and my old car
Cadd9     Em7               D  +riff
     I'm driving somewhere blind

D
Unknown passage
 Cadd9          Em7               D +riff
Cuttin' like a knife through the night
 Cadd9          Em7             D +riff
Cuttin' like a knife through my eyes


Cadd9  Em7  D


END!

Tabbed by deadmoony

Dead Moon:
Fred Cole-  Guitar, Vocals
Toody Cole-  Bass, Vocals
Andrew Loomis- Drums

"Unknown Passage" on "Crack In The System" LP (Tombstone Records, T-55, 1994)



************************************

| h  Hammer-on
| /  Slide up 

************************************

            
            
Suggest correction
Creating personal tab
Creating personal tab
You can edit any tab online and save it as your Personal.

You can edit, replace or remove any tab part or add personal notes – all changes will be seen only by you.

Personal tabs can be accessed anytime from any device, even offline.
Learn more »
Give kudos to tab author, rate the tab!
1 2 3 4 5
comments
print report bad tab
guest
You may want to rate the tab now too:
select rating
Wanna post a correction for this tab? Suggest correction