Oops, an error
Loading. Please wait.

You Spin Me Right Round bass

1,420 views 27 this week
no commentswrite comment
1 2 3 4 5
x 3
add to favorites
×
Save as Personal and add changes to this tab that will be seen only by you. Learn more ›
×
You can save this tab as Personal to edit and correct it or add notes. All changes will be seen only by you. Learn more »
launch autoscroll
font size
0
reset
guitar tuner
edit
Autoscroll
slow
fast
+/-
esc
set tempo
stop
Author
Difficulty
You Spin Me Right Round
A Massive UK number 1 for Dead or Alive in 1984 and the first number 1 for
The production team Stack Aitken Waterman. Bass performance Mike Percy.
Tab by bass50611. I’ve tabbed as triples but you could play any rhythm
You want depending on one’s drummer or even play octaves.
Fairly easy and straight forward. Comments at bass254@btinternet.com

Intro:                                            (Play This x2)
G|--------------------------------------------------------------|
D|--------------------------------------------------------------|
A|------------------------------0-2-2-2---2-2-2---2-2-2---2-2-2-|
E|-2-2-2---2-2-2---2-2-2---2-2-2--------------------------------|

Verse:                                            (Play This x2)
G|--------------------------------------------------------------|
D|--------------------------------------------------------------|
A|------------------------------0-2-2-2---2-2-2---2-2-2---2-2-2-|
E|-2-2-2---2-2-2---2-2-2---2-2-2--------------------------------|

Pre-Chorus:
G|-------------------------------------------------------------|
D|-------------------------------------------------------------|
A|---------------0-0-0---0-0-0---2-2-2---2-2-2---4-4-4---4-4-4-|
E|-2-2-2---2-2-2-----------------------------------------------|

Repeat Verse & Pre-Chorus:

Chorus:                                          (Play This x2)
G|-------------------------------------------------------------|
D|-------------------------------------------------------------|
A|-----------------------------------------------2-2-2---4-4-4-|
E|-2-2-2---2-2-2---5-5-5---0-0-0---2-2-2---2-2-2---------------|

Instrumental:
G|-------------------------------------------------------------|
D|-4-4-4---2-2-2---0-0-0---------------------------------------|
A|-----------------------4-4-4---2-2-2---2-2-2-3-4-4-4---4-4-4-|
E|-------------------------------------------------------------|

Repeat Verse, Pre-Chorus & Chorus:

Bridge:                                            (Play This x2)
G|--------------------------------------------------------------|
D|--------------------------------------------------------------|
A|------------------------------0-2-2-2---2-2-2---2-2-2---2-2-2-|
E|-2-2-2---2-2-2---2-2-2---2-2-2--------------------------------|

Repeat Pre-Chorus:

Repeat Chorus To Fade/End:

            
            
Suggest correction
Creating personal tab
Creating personal tab
You can edit any tab online and save it as your Personal.

You can edit, replace or remove any tab part or add personal notes – all changes will be seen only by you.

Personal tabs can be accessed anytime from any device, even offline.
Learn more »
Give kudos to tab author, rate the tab!
1 2 3 4 5
comments
print report bad tab
guest
You may want to rate the tab now too:
select rating
Wanna post a correction for this tab? Suggest correction