Oops, an error
Loading. Please wait.

145 tab

499 views 18 this week
no commentswrite comment
1 2 3 4 5
2 more votes to show rating
add to favorites
×
Save as Personal and add changes to this tab that will be seen only by you. Learn more ›
×
You can save this tab as Personal to edit and correct it or add notes. All changes will be seen only by you. Learn more »
launch autoscroll
font size
0
reset
how to read this tab
guitar tuner
edit
Autoscroll
slow
fast
+/-
esc
set tempo
stop
Song: 1.4.5
Artist: Dead Poet Society


[Pre-Intro)

e|------------------|--------------|
B|------------------|--------------|
G|------------------|--------------|
D|------------------|--------------|
A|-----3p0------3p0-|-----3p0------|
D|-0-0------0-0-----|-0-0-----0-0--|


[Intro]

e|------------------------|-----------------------|-------------------|-------------|
B|------------------------|-----------------------|-------------------|-------------|
G|------------------------|-----------------------|-------------------|------5------|  
D|-------------3p0------3-|-------------------3---|--------3p0--------|-3/5---------|  x2
A|-----3p0------------3---|-----3p0----5p0------5-|----3p0------3/5-3-|-------------|
D|-0-0------0------0------|--0------0------0------|--0----------------|--------3/5-3|


[Pre-verse]

Guitar 1

e|----------------------|------------------|  
B|----------------------|------------------|  
G|----------------------|------------------| 
D|-0-0-----0--0-0-----0-|-0-0-----0--------| x2
A|-0-0-3p0-0--0-0-3p0-0-|-0-0-3p0-0--3/5-5-|
D|-0-0-----0--0-0-----0-|-0-0-----0--------|

Guitar 2

e|----------------------|------------------|
B|----------------------|------------------|
G|-----5p2--------5p2---|-----5p2----5/7-7-| x2
D|----------------------|------------------|
A|----------------------|------------------|
D|----------------------|------------------|


[Verse]

Guitar 1
 
e|------------|                e|-----------| 
B|------------|                B|-----------|        
G|------------|                G|-----------|        } x2
D|-0-0-----0--| x7  then..     D|-0-0-------|               
A|-0-0-3p0-0--|                A|-0-0-3/5-5-|
D|-0-0-----0--|                D|-0-0-------|

Guitar 2

e|------------|                e|-----------| 
B|------------|                B|-----------|
G|------5p2---|                G|-----5/7-7-|        } x2
D|------------| x7  then..     D|-----------|    
A|------------|                A|-----------|
D|------------|                D|-----------|


[Pre-Chorus]

Guitar 1

e|---------------------|---------------------|     
B|---------------------|---------------------| 
G|---------------------|---------------------| 
D|-5-5-------5-5-------|-3-3--------3-3------| 
A|-5-5-------5-5-------|-3-3--------3-3------| 
D|-5-5-------5-5-------|-3-3--------3-3------|

Guitar 2

e|---------------------|---------------------|
B|---------------------|---------------------|
G|---------7---------7-|---------5---------5-|
D|-----3h5-------3h5---|-----3h5-------3h5---|
A|---------------------|---------------------|
D|---------------------|---------------------|

Guitar 1

e|----------------------|------------------|  
B|----------------------|------------------|  
G|----------------------|------------------| 
D|-0-0-----0--0-0-----0-|-0-0-----0--------|
A|-0-0-3p0-0--0-0-3p0-0-|-0-0-3p0-0--3/5-5-|
D|-0-0-----0--0-0-----0-|-0-0-----0--------|

Guitar 2

e|----------------------|------------------|
B|----------------------|------------------|
G|-----5p2--------5p2---|-----5p2----5/7-7-|
D|----------------------|------------------|
A|----------------------|------------------|
D|----------------------|------------------|

Guitar 1

e|--------------------|----------------------|     
B|--------------------|----------------------| 
G|--------------------|----------------------| 
D|-5-5-------5-5------|--3-3--------3-3------| 
A|-5-5-------5-5------|--3-3--------3-3------| 
D|-5-5-------5-5------|--3-3--------3-3------|

Guitar 2

e|--------------------|----------------------|
B|--------------------|----------------------|
G|---------7--------7-|-----------5--------5-|
D|-----3h5------3h5---|-------3h5------3h5---|
A|--------------------|----------------------|
D|--------------------|----------------------|


[Intro/Theme]

e|------------------------|-----------------------|-------------------|----------------|-----------|
B|------------------------|-----------------------|-------------------|----------------|-----------|
G|------------------------|-----------------------|-------------------|------5---------|-----------|  
D|-------------3p0------3-|-------------------3---|--------3p0--------|-3/5---------5--|-5-5---3-3-|
A|-----3p0------------3---|-----3p0----5p0------5-|----3p0------3/5-3-|---------3/5----|-5-5---3-3-|
D|-0-0------0------0------|--0------0------0------|--0----------------|----------------|-5-5---3-3-|


[Verse]


[Pre Chorus 2] - ending on first F#5 chord (on the second repeat)


[Chorus]

Both Guitars
e|-----------|-----------|-----------|-------------|
B|-----------|-----------|-----------|-------------|
G|-----------|-----------|-----------|-------------|
D|-0---------|-3---------|-8---------|-10-10-10-10-|
A|-0---------|-3---------|-8---------|-10-10-10-10-|
D|-0---------|-3---------|-8---------|-10-10-10-10-|


e|-----------|-----------|-----------|-----------|
B|-----------|-----------|-----------|-----------|
G|-----------|-----------|-----------|-----------|
D|-0---------|-3---------|-8---------|-7---------|
A|-0---------|-3---------|-8---------|-7---------|
D|-0---------|-3---------|-8---------|-7---------|


[Post Chorus]

e|------------------------|-----------------------|-------------------|-------------|
B|------------------------|-----------------------|-------------------|-------------|
G|------------------------|-----------------------|-------------------|------5------|  
D|-------------3p0------3-|-------------------3---|--------3p0--------|-3/5---------| 
A|-----3p0------------3---|-----3p0----5p0------5-|----3p0------3/5-3-|-------------|
D|-0-0------0------0------|--0------0------0------|--0----------------|--------3/5-3|


[Verse]

[Lick heard in verse]

e|--------------|---------------|
B|-----8-6-8-6--|--8------------|
G|--------------|----7-5-7--5-7-|
D|--------------|---------------|
A|--------------|---------------|
D|--------------|---------------|


[Pre Chorus 2]


[Chorus]


[Breakdown - part 1]
 
e|-----------------------|-----------------------|
B|-----------------------|-----------------------|
G|-----------------------|-----------------------|
D|-----------------------|-----------------------| x2
A|-----3p0--------5p0----|-----8p0---------5p0---|
D|-0-0-----0---0-0----0--|-0-0-----0---0-0-----0-|


[Breakdown - part 2]

Guitar 1

e|-------------------|-------------------|-------------------|--------------------|
B|-------------------|-------------------|-------------------|--------------------|
G|-------------------|-------------------|-------------------|--------------------|
D|-----7-----6-------|--------6----------|-----7------6------|--------6-----------| x6
A|-5-5----5-5----5-5-|-8--5-5----5-5-8-5-|-5-5----5-5----5-5-|-8--5-5----5-5-6p5--|
D|-------------------|-------------------|-------------------|--------------------|

Guitar 2 (enters after 2 time of guitar 1)

e|-17-|--16-|--15-|-----|              e|----|-----|-----|-----|
B|----|-----|-----|-15--|              B|----|-----|-----|-----|
G|----|-----|-----|-----|              G|-14-|--13-|--12-|-----|
D|----|-----|-----|-----| x2           D|----|-----|-----|-12--| x2       
A|----|-----|-----|-----|              A|----|-----|-----|-----|
D|----|-----|-----|-----|              D|----|-----|-----|-----|


[Breakdown - part 3]

e|---------------------|--------------------------|
B|---------------------|--------------------------|
G|----14-------14------|-14------14---------------|
D|-0--12--0-0--12--0-0-|-12--0-0-12--0-0-12p11p10-| x2 
A|-0------0-0------0-0-|-----0-0-----0-0----------|
D|-0------0-0------0-0-|-----0-0-----0-0----------|

e|---------------------|-------------|                --------------|
B|---------------------|-------------|                --------------|
G|----15-------15------|-15------15--|                --------------|
D|-0--13--0-0--13--0-0-|-13--0-0-13--|  Play only     -0-0-12p11p10-|     x2
A|-0------0-0------0-0-|-----0-0-----|  after the     -0-0----------|
D|-0------0-0------0-0-|-----0-0-----|  first time    -0-0----------|

e|---------------------|--------------------------|
B|---------------------|--------------------------|
G|----14-------14------|-14------14---------------|
D|-0--12--0-0--12--0-0-|-12--0-0-12--0-0-12p11p10-| x2 
A|-0------0-0------0-0-|-----0-0-----0-0----------|
D|-0------0-0------0-0-|-----0-0-----0-0----------|

e|---------------------|--------------------------|
B|---------------------|--------------------------|
G|----15-------15------|-15------15---------------|
D|-0--13--0-0--13--0-0-|-13--0-0-13--0-0-12p11p10-|
A|-0------0-0------0-0-|-----0-0-----0-0----------|
D|-0------0-0------0-0-|-----0-0-----0-0----------|

e|---------------------|----------------------|
B|---------------------|----------------------|
G|----15-------15------|-16------17------18---|
D|-0--13--0-0--13--0-0-|-14--0-0-15--0-0-16---| 
A|-0------0-0------0-0-|-----0-0-----0-0------|
D|-0------0-0------0-0-|-----0-0-----0-0------|


[Chorus] x2


[Outro]

e|------------------------|-----------------------|-------------------|-------------|
B|------------------------|-----------------------|-------------------|-------------|
G|------------------------|-----------------------|-------------------|------5------|  
D|-------------3p0------3-|-------------------3---|--------3p0--------|-3/5---------|  
A|-----3p0------------3---|-----3p0----5p0------5-|----3p0------3/5-3-|-------------|
D|-0-0------0------0------|--0------0------0------|--0----------------|--------3/5-3|

e|------------------------|-----------------------|-------------------|----------------|-------------|
B|------------------------|-----------------------|-------------------|----------------|-------------|
G|------------------------|-----------------------|-------------------|------5---------|-------------|  
D|-------------3p0------3-|-------------------3---|--------3p0--------|-3/5---------5--|-5-5---3-3-0-|
A|-----3p0------------3---|-----3p0----5p0------5-|----3p0------3/5-3-|---------3/5----|-5-5---3-3-0-|
D|-0-0------0------0------|--0------0------0------|--0----------------|----------------|-5-5---3-3-0-|



************************************

| h  Hammer-on
| p  Pull-off
| /  Slide up

************************************
Suggest correction
Creating personal tab
Creating personal tab
You can edit any tab online and save it as your Personal.

You can edit, replace or remove any tab part or add personal notes – all changes will be seen only by you.

Personal tabs can be accessed anytime from any device, even offline.
Learn more »
Give kudos to tab author, rate the tab!
1 2 3 4 5
comments
print report bad tab
guest
You may want to rate the tab now too:
select rating
Wanna post a correction for this tab? Suggest correction