Oops, an error
Loading. Please wait.

New Medicines Bass Tab

version 2
version 2

Whole song

Interactive

310 views 1 this week
no commentswrite comment
1 2 3 4 5
3 more votes to show rating
add to favorites
launch autoscroll
font size
0
reset
guitar tuner
Autoscroll
slow
fast
+/-
esc
set tempo
stop
Help us to improve Ultimate-Guitar.com Take our survey!
×
Author
Difficulty
Tuning
novice
D A D G B E
Please rate as this is my first tab. havnt been playing long, but im 100%
confident this is correct. Enjoy!

Verse 1 : (x4)
G)---------------------------------------------------------------------|
D)---------------------------------------------------------------------|
A)------------777-------222-------222----------------------------------|
D)--4444--444-------000-------000--------------------------------------|

Interlude : (x2)
G)---------------------------------------------------------------------|
D)--9-99---------------------------------------------------------------|
A)-------9-99-5-55-9-99------------------------------------------------|
D)---------------------------------------------------------------------|

Pre-Chorus : (x4)
G)---------------------------------------------------------------------|
D)---------------------------------------------------------------------|
A)---------------------------------------------------------------------|
D)--444-4444-4444-44422000-000-000-0000--------------------------------|

Chorus : (x4)
G)---------------------------------------------------------------------|
D)---------------------------------------------------------------------|
A]-2-22/9-99-----------------------------------------------------------|
D]-----------00-00-0-44-44-4-------------------------------------------|

Verse 2 : (x3)
G)---------------------------------------------------------------------|
D)---------------------------------------------------------------------|
A)------------777-------222-------222----------------------------------|
D)--4444--444-------000-------000--------------------------------------|

Pre-Chorus :  (x2)
G)---------------------------------------------------------------------|
D)---------------------------------------------------------------------|
A)---------------------------------------------------------------------|
D)--444-4444-4444-44422000-000-000-0000--------------------------------|

Chorus : (x4)
G)---------------------------------------------------------------------|
D)---------------------------------------------------------------------|
A]-2-22/9-99-----------------------------------------------------------|
D]-----------00-00-0-44-44-4-------------------------------------------|

Bridge : (x4)
G]---------------------------------------------------------------------|
D]---------------------------------------------------------------------|
A]-----777-------544-------2~-----2~-----------------------------------|
D]-444-------444-------000----000--------------------------------------|

Chorus : (x4)
G)---------------------------------------------------------------------|
D)---------------------------------------------------------------------|
A]-2-22/9-99-----------------------------------------------------------|
D]-----------00-00-0-44-44-4-------------------------------------------|

Ending :  (x4 but fade out)
G)---------------------------------------------------------------------|
D)---------------------------------------------------------------------|
A)---------------------------------------------------------------------|
D)--444-4444-4444-44422000-000-000-0000--------------------------------|
Suggest correction
Give kudos to tab author, rate the tab!
1 2 3 4 5
comments
print report bad tab
guest
You may want to rate the tab now too:
select rating
Wanna post a correction for this tab? Suggest correction