Oops, an error
Loading. Please wait.

Baby Rock Tab

76 views 9 this week
no commentswrite comment
1 2 3 4 5
2 more votes to show rating
add to favorites
launch autoscroll
font size
0
reset
how to read this tab
guitar tuner
Autoscroll
slow
fast
+/-
esc
set tempo
stop
Help us to improve Ultimate-Guitar.com Take our survey!
×
Author
Difficulty
novice
Artist: Dead Sara
Song: Baby Rock (The Airport Sessions)
[www.deadsara.com] (go buy their music and support them!)


[Intro and verse]

e|-----------------|-----------------|-----------------|-----------------|
B|-----------------|-----------------|-----------------|-----------------|
G|-----------------|-----------------|-----------------|-----------------| x4
D|-----------------|-----------------|-2-2-4-2--2-4-2--|-2-4-4-4-4-2-----|
A|-2-2-4-2--2-4-2--|-2-2-4-2--2-4-2--|-0-0-0-0--0-0-0--|-------------4-2-|
E|-0-0-0-0--0-0-0--|-0-0-0-0--0-0-0--|-----------------|-----------------|


[pre-chorus]

e|-----------------|-----------------|-----------------|-----------------|
B|-----------------|-----------------|-----------------|-----------------|
G|-----------------|-----------------|-----------------|-----------------| x2
D|-----------------|-----------------|-2-2-4-2--2-4-2--|-2-6-6-6-6-4-2---|
A|-2-2-4-2--x-14\2-|-2-2-4-2--x-14\2-|-0-0-0-0--0-0-0--|---------------4-|
E|-0-0-0-0--x-14\2-|-0-0-0-0--x-14\2-|-----------------|-----------------|


[Chorus]

e|-----------------|-----------------|     
B|-----------------|-----------------|     
G|-4-4-4-4-4-4-4-4-|-2-2-2-2-2-2-2-2-| x2  
D|-4-4-4-4-4-4-4-4-|-2-2-2-2-2-2-2-2-|    
A|-2-2-2-2-2-2-2-2-|-0-0-0-0-0-0-0-0-|     
E|-----------------|-----------------|    

e|-----------------|-----------------|-----------------|     
B|-----------------|-----------------|-----------------|    
G|-4-4-4-4-4-4-4-4-|-2-2-2-2-2-------|-----------------| 
D|-4-4-4-4-4-4-4-4-|-2-2-2-2-2--5----|-2---------------|    
A|-2-2-2-2-2-2-2-2-|-0-0-0-0-0--5----|-2---------------|     
E|-----------------|------------3----|-0---------------|    
                                      (let E5 ring out)


[2nd verse]

e|-----------------|-----------------|-----------------|-----------------|
B|-----------------|-----------------|-----------------|-----------------|
G|-----------------|-----------------|-----------------|-----------------| x2
D|-----------------|-----------------|-2-2-4-2--2-4-2--|-2-4-4-4-4-2-----|
A|-2-2-4-2--2-4-2--|-2-2-4-2--2-4-2--|-0-0-0-0--0-0-0--|-------------4-2-|
E|-0-0-0-0--0-0-0--|-0-0-0-0--0-0-0--|-----------------|-----------------|


[pre-chorus]

e|-----------------|-----------------|-----------------|-----------------|
B|-----------------|-----------------|-----------------|-----------------|
G|-----------------|-----------------|-----------------|-----------------| x2
D|-----------------|-----------------|-2-2-4-2--2-4-2--|-2-6-6-6-6-4-2---|
A|-2-2-4-2--x-14\2-|-2-2-4-2--x-14\2-|-0-0-0-0--0-0-0--|---------------4-|
E|-0-0-0-0--x-14\2-|-0-0-0-0--x-14\2-|-----------------|-----------------|


[Chorus]

e|-----------------|-----------------|     
B|-----------------|-----------------|     
G|-4-4-4-4-4-4-4-4-|-2-2-2-2-2-2-2-2-| x2  
D|-4-4-4-4-4-4-4-4-|-2-2-2-2-2-2-2-2-|    
A|-2-2-2-2-2-2-2-2-|-0-0-0-0-0-0-0-0-|     
E|-----------------|-----------------|    

e|-----------------|-----------------|    
B|-----------------|-----------------|    
G|-4-4-4-4-4-4-4-4-|-2-2-2-2-2-------|
D|-4-4-4-4-4-4-4-4-|-2-2-2-2-2--5----|    
A|-2-2-2-2-2-2-2-2-|-0-0-0-0-0--5----|   
E|-----------------|------------3----| 
                                      

[Solo]

e|-----------------|-----------------|
B|-----------------|-----------------|
G|-----------------|-----------------| x2
D|-----------------|-----------------|
A|-0-0-0-0-3-3-3-3-|-5-5-5-5-5/6\5---|
E|-----------------|-----------------|

e|-----------------|-----------------|
B|-----------------|-----------------|
G|-2-2-2-2-5-5-5-5-|-7-7-7-7-7/8\7---| x2
D|-2-2-2-2-5-5-5-5-|-7-7-7-7-7/8\7---|
A|-0-0-0-0-3-3-3-3-|-5-5-5-5-5/6\5---|
E|-----------------|-----------------|

e|-----------------|-----------------|-----------------|
B|-----------------|-----------------|-----------------|
G|-9-9-9-9-9-9-9-9-|-9-9-9-9-9--2----|-----------------|
D|-9-9-9-9-9-9-9-9-|-9-9-9-9-9--2----|-2---------------|
A|-7-7-7-7-7-7-7-7-|-7-7-7-7-7--0----|-2---------------|
E|-----------------|-----------------|-0---------------|
                                      (let E5 ring out)


[pre-chorus]

e|-----------------|-----------------|-----------------|-----------------|
B|-----------------|-----------------|-----------------|-----------------|
G|-----------------|-----------------|-----------------|-----------------| x2
D|-----------------|-----------------|-2-2-4-2--2-4-2--|-2-6-6-6-6-4-2---|
A|-2-2-4-2--x-14\2-|-2-2-4-2--x-14\2-|-0-0-0-0--0-0-0--|---------------4-|
E|-0-0-0-0--x-14\2-|-0-0-0-0--x-14\2-|-----------------|-----------------|



e|-----------------|-----------------|     
B|-----------------|-----------------|     
G|-4-4-4-4-4-4-4-4-|-2-2-2-2-2-2-2-2-| x2 
D|-4-4-4-4-4-4-4-4-|-2-2-2-2-2-2-2-2-|    
A|-2-2-2-2-2-2-2-2-|-0-0-0-0-0-0-0-0-|     
E|-----------------|-----------------|    

e|-----------------|-----------------|    
B|-----------------|-----------------|    
G|-4-4-4-4-4-4-4-4-|-2-2-2-2-2-------|
D|-4-4-4-4-4-4-4-4-|-2-2-2-2-2--5----|    
A|-2-2-2-2-2-2-2-2-|-0-0-0-0-0--5----|   
E|-----------------|------------3----| 



e|-----------------|-----------------|     
B|-----------------|-----------------|     
G|-4-4-4-4-4-4-4-4-|-2-2-2-2-2-2-2-2-| x2 
D|-4-4-4-4-4-4-4-4-|-2-2-2-2-2-2-2-2-|    
A|-2-2-2-2-2-2-2-2-|-0-0-0-0-0-0-0-0-|     
E|-----------------|-----------------|   

e|-----------------|-----------------|-----------------|     
B|-----------------|-----------------|-----------------|    
G|-4-4-4-4-4-4-4-4-|-2-2-2-2-2-------|-----------------| 
D|-4-4-4-4-4-4-4-4-|-2-2-2-2-2--5----|-2---------------|    
A|-2-2-2-2-2-2-2-2-|-0-0-0-0-0--5----|-2---------------|     
E|-----------------|------------3----|-0---------------|    
                                      (let E5 ring out)


************************************
| x   Dead note
| /   Slide up
| \   Slide down
************************************
Suggest correction
Give kudos to tab author, rate the tab!
1 2 3 4 5
comments
print report bad tab
guest
You may want to rate the tab now too:
select rating
Wanna post a correction for this tab? Suggest correction