Oops, an error
Loading. Please wait.

Mother Teresa Tab

31 views 3 this week
no commentswrite comment
1 2 3 4 5
3 more votes to show rating
add to favorites
launch autoscroll
font size
0
reset
how to read this tab
guitar tuner
Autoscroll
slow
fast
+/-
esc
set tempo
stop
Help us to improve Ultimate-Guitar.com Take our survey!
×
Author
Difficulty
novice
Artist: Dead Sara
Song: Mother Teresa (The Airport Sessions)
[www.deadsara.com] (go buy their music and support them!)


[Intro]

e|--------------------|--------------------|
B|--------------------|--------------------|
G|--------------------|--------------------| x4
D|--------------------|--------------------|
A|--------------------|--------------------|
E|-4--4-4/12-12-12-12-|-5-5-5-4--4-4-0-----|


[Verse 1]

e|--------------------|--------------------|
B|--------------------|--------------------|
G|--------------------|--------------------| x3
D|--------------------|--------------------|
A|--------------------|--------------------|
E|-4--4-4/12-12-12-12-|-5-5-5-4--4-4-0-----|

e|--------------------|--------------------|
B|--------------------|--------------------|
G|--------------------|--------------------| 
D|--------------------|-9-7--6--6----------|
A|--------------------|-9-7--6--6----------|
E|-4--4-4/12-12-12-12-|-7-5--4--4----------|
     
                
[Chorus]

e|----------------|----------------|
B|----------------|----------------|
G|--------4-4-4-4-|----------------| x4
D|-2--2-2-4-4-4-4-|-6-6-6-7--7-7-7-|
A|-2--2-2-2-2-2-2-|-6-6-6-7--7-7-7-|
E|-0--0-0---------|-4-4-4-5--5-5-5-|
   (E5)    (B5)      (G#5)   (A5)

e|--------------------|--------------------|
B|--------------------|--------------------|
G|--------------------|--------------------| 
D|--------------------|-9-7--6--6----------|
A|--------------------|-9-7--6--6----------|
E|-4--4-4/12-12-12-12-|-7-5--4--4----------|
                    

[Verse 2]

e|--------------------|--------------------|
B|--------------------|--------------------|
G|--------------------|--------------------| x3
D|--------------------|--------------------|
A|--------------------|--------------------|
E|-4--4-4/12-12-12-12-|-5-5-5-4--4-4-0-----|

e|--------------------|--------------------|
B|--------------------|--------------------|
G|--------------------|--------------------| 
D|--------------------|-9-7--6--6----------|
A|--------------------|-9-7--6--6----------|
E|-4--4-4/12-12-12-12-|-7-5--4--4----------|
                      

[Chorus]

e|----------------|----------------|
B|----------------|----------------|
G|--------4-4-4-4-|----------------| x4
D|-2--2-2-4-4-4-4-|-6-6-6-7--7-7-7-|
A|-2--2-2-2-2-2-2-|-6-6-6-7--7-7-7-|
E|-0--0-0---------|-4-4-4-5--5-5-5-|
    (E5)    (B5)      (G#5)   (A5)

[Bridge]

e|-----------------|-----------------|-----------------|-----------------|
B|-----------------|-----------------|-----------------|-----------------|
G|-----------------|-----------------|-----------------|-----------------|
D|-9-9-9-9-9-9-9-9-|-9-9-9-9-9-9-9-9-|-7-7-7-7-7-7-7-7-|-7-7-7-7-7-7-7-7-|
A|-9-9-9-9-9-9-9-9-|-9-9-9-9-9-9-9-9-|-7-7-7-7-7-7-7-7-|-7-7-7-7-7-7-7-7-|
E|-7-7-7-7-7-7-7-7-|-7-7-7-7-7-7-7-7-|-5-5-5-5-5-5-5-5-|-5-5-5-5-5-5-5-5-|
        (B5)              (B5)               (A5)              (A5)

e|-----------------|-----------------|-----------------|-----------------|
B|-----------------|-----------------|-----------------|-----------------|
G|-----------------|-----------------|-9-9-9-9-9-9-9-9-|-9-9-9-9-9-9-9-9-|
D|-9-9-9-9-9-9-9-9-|-9-9-9-9-9-9-9-9-|-9-9-9-9-9-9-9-9-|-9-9-9-9-9-9-9-9-|
A|-9-9-9-9-9-9-9-9-|-9-9-9-9-9-9-9-9-|-7-7-7-7-7-7-7-7-|-7-7-7-7-7-7-7-7-|
E|-7-7-7-7-7-7-7-7-|-7-7-7-7-7-7-7-7-|-----------------|-----------------|
        (B5)              (B5)               (E5)              (E5)

e|--------------------|--------------------|
B|--------------------|--------------------|
G|--------------------|--------------------| x2
D|--------------------|-9-7--6--6----------|
A|--------------------|-9-7--6--6----------|
E|-4--4-4/12-12-12-12-|-7-5--4--4----------|
                      

*Now just kinda strum open string with lots of sustain*


[When she sings "Is she as pretty as me?"]

e|------------------|------------------|
B|------------------|------------------|
G|------------------|------------------| x3
D|------------------|------------------|
A|------------------|------------------|
E|-4--4-4-4-0-0-0-0-|-5-5-5-4--4-4-0---|
(PM************************************)

e|--------------------|--------------------|
B|--------------------|--------------------|
G|--------------------|--------------------| 
D|--------------------|-9-7--6--6----------|
A|--------------------|-9-7--6--6----------|
E|-4--4-4/12-12-12-12-|-7-5--4--4----------|
                     

[Chorus]

e|----------------|----------------|
B|----------------|----------------|
G|--------4-4-4-4-|----------------| x4
D|-2--2-2-4-4-4-4-|-6-6-6-7--7-7-7-|
A|-2--2-2-2-2-2-2-|-6-6-6-7--7-7-7-|
E|-0--0-0---------|-4-4-4-5--5-5-5-|
   (E5)    (B5)      (G#5)   (A5)

e|-----------------|-----------------|-----------------|-----------------|
B|-----------------|-----------------|-----------------|-----------------|
G|-----------------|-----------------|-----------------|-----------------|
D|-9-9-9-9-9-9-9-9-|-9-9-9-9-9-9-9-9-|-7-7-7-7-7-7-7-7-|-7-7-7-7-7-7-7-7-|
A|-9-9-9-9-9-9-9-9-|-9-9-9-9-9-9-9-9-|-7-7-7-7-7-7-7-7-|-7-7-7-7-7-7-7-7-|
E|-7-7-7-7-7-7-7-7-|-7-7-7-7-7-7-7-7-|-5-5-5-5-5-5-5-5-|-5-5-5-5-5-5-5-5-|
        (B5)              (B5)               (A5)              (A5)

e|-----------------|-----------------|-----------------|-----------------|
B|-----------------|-----------------|-----------------|-----------------|
G|-----------------|-----------------|-9-9-9-9-9-9-9-9-|-9-9-9-9-9-9-9-9-|
D|-9-9-9-9-9-9-9-9-|-9-9-9-9-9-9-9-9-|-9-9-9-9-9-9-9-9-|-9-9-9-9-9-9-9-9-|
A|-9-9-9-9-9-9-9-9-|-9-9-9-9-9-9-9-9-|-7-7-7-7-7-7-7-7-|-7-7-7-7-7-7-7-7-|
E|-7-7-7-7-7-7-7-7-|-7-7-7-7-7-7-7-7-|-----------------|-----------------|
        (B5)              (B5)               (E5)              (E5)

[Outro]

e|--------------------|--------------------|
B|--------------------|--------------------|
G|--------------------|--------------------| x2
D|-6--6-6-14-14-14-14-|-9-7--6--6----------|
A|-6--6-6-14-14-14-14-|-9-7--6--6----------|
E|-4--4-4-12-12-12-12-|-7-5--4--4----------|
    (G#5)     (E5)    (B5)(A5)(G#5)


************************************
| /   Slide up
| PM  Palm mute
************************************
Suggest correction
Give kudos to tab author, rate the tab!
1 2 3 4 5
comments
print report bad tab
guest
You may want to rate the tab now too:
select rating
Wanna post a correction for this tab? Suggest correction