Oops, an error
Loading. Please wait.

Sorry For It All Tab

version 1
version 1

Whole song

  • This is the acoustic version.
145 views 1 this week
no commentswrite comment
1 2 3 4 5
3 more votes to show rating
add to favorites
launch autoscroll
font size
0
reset
how to read this tab
guitar tuner
Autoscroll
slow
fast
+/-
esc
set tempo
stop
Help us to improve Ultimate-Guitar.com Take our survey!
×
Author
Difficulty
novice
About this tab version
This is the acoustic version. Was this info helpful? Yes No
Artist: Dead Sara
Song: Sorry For It All (The Airport Sessions)
[www.deadsara.com] (go buy their music and support them!)

This one's the acoustic version off their EP, "The Airport Sessions".
Siouxsie tunes the low E up to a G [GADGBe].

I tabbed it out from this live version: https://www.youtube.com/watch?v=OKf7N0LZrcE


[Intro]

e|----0--------1p0------|----------1p0---------|
B|-------3------------3-|--3---------------3---|
G|----------2------2----|-----2---------2------|
D|-0--------------------|--------0-------------|
A|----------------------|----------------------|
G|----------------------|----------------------|


[Verse and chorus]

e|--------------------|--------------------|--------------------|--------------------|
B|-----3--------3-----|----3------3--------|---3--------3-------|---3--------3-------|
G|-------0--------0---|------0------0------|-----0--------0-----|-----0--------0-----| x8
D|--------------------|--------------------|--------------------|----------------5---|
A|-0h2-----2-0------0-|-3------3------3/5--|-5---------------5--|-5------------------|
G|--------------------|--------------------|--------0-0---------|--------0-0---------|


[It changes when she sings "You're leaving as I said..."]

e|--------------------|--------------------|--------------------|--------------------|
B|-----3--------3-----|----3------3--------|---3------5p3----3--|---3-------5p3----3-|
G|-------0--------0---|------0------0------|-----0--------------|-----0--------------| x2
D|--------------------|--------------------|--------------------|--------------------|
A|-0h2-----2-0------0-|-3------3------3/5--|-5------0------5----|-5------5-------5---|
G|--------------------|--------------------|--------------------|--------------------|


[2nd verse and chorus again]

e|--------------------|--------------------|--------------------|--------------------|
B|-----3--------3-----|----3------3--------|---3--------3-------|---3--------3-------|
G|-------0--------0---|------0------0------|-----0--------0-----|-----0--------0-----| x6
D|--------------------|--------------------|--------------------|----------------5---|
A|-0h2-----2-0------0-|-3------3------3/5--|-5---------------5--|-5------------------|
G|--------------------|--------------------|--------0-0---------|--------0-0---------|


[Bridge]

e|--------------------|--------------------|--------------------|--------------------|
B|---12-----12-----12-|----3------3------3-|----5------5-----5--|----5------5-----5--|
G|-----12-----12------|------0------0------|------7------7------|------7------7------| x4
D|--------------------|--------------------|--7-----7------7----|--7-----7------7----|
A|-10----10-----10----|--3------3------3---|--------------------|--------------------|
G|--------------------|--------------------|--------------------|--------------------|


[Final chorus]

e|--------------------|--------------------|--------------------|--------------------|
B|-----3--------3-----|----3------3--------|---3--------3-------|---3--------3-------|
G|-------0--------0---|------0------0------|-----0--------0-----|-----0--------0-----| x4
D|--------------------|--------------------|--------------------|----------------5---|
A|-0h2-----2-0------0-|-3------3------3/5--|-5---------------5--|-5------------------|
G|--------------------|--------------------|--------0-0---------|--------0-0---------|


[Outro]

e|--------------------|--------------------|--------------------|--------------------|
B|-----3--------3-----|----3------3--------|---3------5p3----3--|---3-------5p3----3-|
G|-------0--------0---|------0------0------|-----0--------------|-----0--------------| x4
D|--------------------|--------------------|--------------------|--------------------|
A|-0h2-----2-0------0-|-3------3------3/5--|-5------0------5----|-5------5-------5---|
G|--------------------|--------------------|--------------------|--------------------|


The song fades out but you can end it like this or strum it and let it ring out.

e|--------------------|--------------------|--------------------|
B|-----3--------3-----|----3------3--------|-----3--------------|
G|-------0--------0---|------0------0------|-------0------------|
D|--------------------|--------------------|--------------------|
A|-0h2-----2-0------0-|-3------3------3/5--|--5-----------------|
G|--------------------|--------------------|-----------0-0------|


Enjoy :)

************************************
| h   Hammer-on
| p   Pull-off
| /   Slide up
************************************
Suggest correction
Give kudos to tab author, rate the tab!
1 2 3 4 5
comments
print report bad tab
guest
You may want to rate the tab now too:
select rating
Wanna post a correction for this tab? Suggest correction