Oops, an error
Loading. Please wait.

Test On My Patience Tab

61 views 15 this week
no commentswrite comment
1 2 3 4 5
3 more votes to show rating
add to favorites
launch autoscroll
font size
0
reset
how to read this tab
guitar tuner
Autoscroll
slow
fast
+/-
esc
set tempo
stop
Help us to improve Ultimate-Guitar.com Take our survey!
×
Author
Difficulty
novice
Artist: Dead Sara
Song: Test On My Patience (Dead Sara)
[www.deadsara.com] (go buy their music and support them!)

Both guitars tune the low E up to a G [GADBe].

GUITAR 1- Siouxsie Medley

[Intro]
e|------------------------------------|---------------------------------------------|
B|------------------------------------|---------------------------------------------|
G|------------------------------------|---------------------------------------------| x2
D|-x---------------x-x-x--------------|-x-x-x---------------------------------------|
A|-x--10-10-10-10--x-x-x--10-10-10-10-|-x-x-x--10-10-10-10--10-12/14-14-14-12-10-12-|
G|-x--0--0--0--0---x-x-x--0--0--0--0--|-x-x-x--0--0--0--0---0--0-----0--0--0--0--0--|
 (you can play the dead notes on the 12th fret to get a sort of 'chunky' natural harmonic)

[Verse 1]
    Why you testing my patience?              I was feeling part of the scenery 
e|------------------------------------|---------------------------------------------|
B|------------------------------------|---------------------------------------------|
G|------------------------------------|---------------------------------------------| 
D|-x---------------x-x-x--------------|-x-x-x---------------------------------------|
A|-x--10-10-10-10--x-x-x--10-10-10-10-|-x-x-x--10-10-10-10--10-12/14-14-14-12-10-12-|
G|-x--0--0--0--0---x-x-x--0--0--0--0--|-x-x-x--0--0--0--0---0--0-----0--0--0--0--0--|

        Well it gave me a reason            and it must have been good enough
e|------------------------------------|---------------------------------------------|
B|------------------------------------|---------------------------------------------|
G|------------------------------------|---------------------------------------------| 
D|-x---------------x-x-x--------------|-x-x-x---------------------------------------|
A|-x--10-10-10-10--x-x-x--10-10-10-10-|-x-x-x--10-10-10-10--10-12/14----------------|
G|-x--0--0--0--0---x-x-x--0--0--0--0--|-x-x-x--0--0--0--0---0--0--------------12\---|

[Pre-chorus 1]
e|------------------------------------|---------------------------------------------|
B|------------------------------------|---------------------------------------------|
G|------------------------------------|---------------------------------------------| x2
D|-x---------------x-x-x--------------|-x-x-x---------------------------------------|
A|-x--10-10-10-10--x-x-x--10-10-10-10-|-x-x-x--10-10-10-10--10-12/14-14-14-12-10-12-|
G|-x--0--0--0--0---x-x-x--0--0--0--0--|-x-x-x--0--0--0--0---0--0-----0--0--0--0--0--|

    I'm in love, I'm in love, no I'm not oh my god I'm a liar I can taste it
e|------------------------------------|---------------------------------------------|
B|------------------------------------|---------------------------------------------|
G|----12-12-12-12---------------------|---------------------------------------------| 
D|-x--x--x--x--x----------------------|---------------------------------------------|
A|-x--10-10-10-10---------------------|---------------------10-12/14-14-14-12-10-12-|
G|-x--0--0--0--0----------------------|---------------------0--0-----0--0--0--0--0--|
       (let it ring out)

   and you can say, you can say what you want what you will, say you don't mean it
e|------------------------------------|---------------------------------------------|
B|------------------------------------|---------------------------------------------|
G|----12-12-12-12---------------------|--------12-12-12-12--------------------------| 
D|-x--x--x--x--x----------------------|--------x--x--x--x---------------------------|
A|-x--10-10-10-10---------------------|--------10-10-10-10--10-12/14-14-14-12-10-12-|
G|-x--0--0--0--0----------------------|--------0--0--0--0---0--0-----0--0--0--0--0--|
  
   Cause you've got your innocent thoughts...fixated, fixated li-i-i-fe
e|-------------------------------------------------|-------------------------------------------------|
B|-------------------------------------------------|-------------------------------------------------|
G|-------------------------------------------------|----------------------------15-15-15-15-15-15-15-| x2
D|-------------------------------------------------|----------------------------x--x--x--x--x--x--x--|
A|-10-10-10-10-10-10-10-10-10-10-10-10-10-10-10-10-|-10-10-10-10-10-10-10-10-10-13-13-13-13-13-13-13-|
G|-0--0--0--0--0--0--0--0--0--0--0--0--0--0--0--0--|-0--0--0--0--0--0--0--0--0--0--0--0--0--0--0--0--|
(PM****************************************************************************)

  C'mon!
e|-------------------------------------------------|-------------------------------------------------|
B|-------------------------------------------------|-------------------------------------------------|
G|-12-12-12-12-12-12-12-12-12-12-12-12-12-12-12-12-|--15-15-15-15-15-15----10--10-10-10-10-10-10-----|
D|-x--x--x--x--x--x--x--x--x--x--x--x--x--x--x--x--|--x--x--x--x--x--x-----x---x--x--x--x--x--x------|
A|-10-10-10-10-10-10-10-10-10-10-10-10-10-10-10-10-|--13-13-13-13-13-13----8---8--8--8--8--8--8------|
G|-0--0--0--0--0--0--0--0--0--0--0--0--0--0--0--0--|--0--0--0--0--0--0-----0---0--0--0--0--0--0------|

  C'mon!
e|-------------------------------------------------|-------------------------------------------------|
B|-------------------------------------------------|-------------------------------------------------|
G|-12-12-12-12-12-12-12-12-12-12-12-12-12-12-12-12-|--15-15-15-15-15-15----17--17-17-17-17-17-17-----|
D|-x--x--x--x--x--x--x--x--x--x--x--x--x--x--x--x--|--x--x--x--x--x--x-----x---x--x--x--x--x--x------|
A|-10-10-10-10-10-10-10-10-10-10-10-10-10-10-10-10-|--13-13-13-13-13-13----15--15-15-15-15-15-15-----|
G|-0--0--0--0--0--0--0--0--0--0--0--0--0--0--0--0--|--0--0--0--0--0--0-----0---0--0--0--0--0--0------|

[Chorus]
        Too close to something         that was already mine
e|---------------------------------|-----------------------------------------|
B|---------------------------------|-----------------------------------------|
G|---------------------------------|-----------------------------------------|
D|-5-5-5-5-5-5-5-5-5-5-5-5-5-5-5-5-|-----------------------------------------|
A|-x-x-x-x-x-x-x-x-x-x-x-x-x-x-x-x-|-----------------------------------------|
G|-0-0-0-0-0-0-0-0-0-0-0-0-0-0-0-0-|-3-3-3-3-3-3-3-3-10-10-10-10-10-10-10-10-|

            Too far from perfect       to spend my life trying
e|---------------------------------|---------------------------------|
B|---------------------------------|---------------------------------|
G|---------------------------------|---------------------------------|
D|-5-5-5-5-5-5-5-5-5-5-5-5-5-5-5-5-|---------------------------------|
A|-x-x-x-x-x-x-x-x-x-x-x-x-x-x-x-x-|-----------------3-3-3-3-3-3-3-3-|
G|-0-0-0-0-0-0-0-0-0-0-0-0-0-0-0-0-|-3-3-3-3-3-3-3-3-5-5-5-5-5-5-5-5-|

[Verse 2]
    Why you testing my patience?                I was feeling part of the scenery 
e|------------------------------------|---------------------------------------------|
B|------------------------------------|---------------------------------------------|
G|------------------------------------|---------------------------------------------| 
D|-x---------------x-x-x--------------|-x-x-x---------------------------------------|
A|-x--10-10-10-10--x-x-x--10-10-10-10-|-x-x-x--10-10-10-10--10-12/14-14-14-12-10-12-|
G|-x--0--0--0--0---x-x-x--0--0--0--0--|-x-x-x--0--0--0--0---0--0-----0--0--0--0--0--|

       Well I wore out my welcome                    well I must, depend on
e|------------------------------------|---------------------------------------------|
B|------------------------------------|---------------------------------------------|
G|------------------------------------|---------------------------------------------| 
D|-x---------------x-x-x--------------|-x-x-x---------------------------------------|
A|-x--10-10-10-10--x-x-x--10-10-10-10-|-x-x-x--10-10-10-10--10-12/14----------------|
G|-x--0--0--0--0---x-x-x--0--0--0--0--|-x-x-x--0--0--0--0---0--0-------------12\----|

[Pre-chorus 2]
   If I'm in love, I'm in love, well I'm not oh my god I'm a liar I can taste it
e|------------------------------------|---------------------------------------------|
B|------------------------------------|---------------------------------------------|
G|------------------------------------|---------------------------------------------| 
D|-x---------------x-x-x--------------|-x-x-x---------------------------------------|
A|-x--10-10-10-10--x-x-x--10-10-10-10-|-x-x-x--10-10-10-10--10-12/14-14-14-12-10-12-|
G|-x--0--0--0--0---x-x-x--0--0--0--0--|-x-x-x--0--0--0--0---0--0-----0--0--0--0--0--|

   and you can say, you can say what you want what you will, say you don't mean it
e|------------------------------------|---------------------------------------------|
B|------------------------------------|---------------------------------------------|
G|----12-12-12-12---------------------|--------12-12-12-12--------------------------| 
D|-x--x--x--x--x----------------------|--------x--x--x--x---------------------------|
A|-x--10-10-10-10---------------------|--------10-10-10-10--10-12/14-14-14-12-10-12-|
G|-x--0--0--0--0----------------------|--------0--0--0--0---0--0-----0--0--0--0--0--|
  
   Cause you've got your innocent thoughts...fixated, fixated li-i-i-fe
e|-------------------------------------------------|-------------------------------------------------|
B|-------------------------------------------------|-------------------------------------------------|
G|-------------------------------------------------|----------------------------15-15-15-15-15-15-15-| x2
D|-------------------------------------------------|----------------------------x--x--x--x--x--x--x--|
A|-10-10-10-10-10-10-10-10-10-10-10-10-10-10-10-10-|-10-10-10-10-10-10-10-10-10-13-13-13-13-13-13-13-|
G|-0--0--0--0--0--0--0--0--0--0--0--0--0--0--0--0--|-0--0--0--0--0--0--0--0--0--0--0--0--0--0--0--0--|
(PM****************************************************************************)

  Oh c'mon!
e|-------------------------------------------------|-------------------------------------------------|
B|-------------------------------------------------|-------------------------------------------------|
G|-12-12-12-12-12-12-12-12-12-12-12-12-12-12-12-12-|--15-15-15-15-15-15----17--17-17-17-17-17-17-----|
D|-x--x--x--x--x--x--x--x--x--x--x--x--x--x--x--x--|--x--x--x--x--x--x-----x---x--x--x--x--x--x------|
A|-10-10-10-10-10-10-10-10-10-10-10-10-10-10-10-10-|--13-13-13-13-13-13----15--15-15-15-15-15-15-----|
G|-0--0--0--0--0--0--0--0--0--0--0--0--0--0--0--0--|--0--0--0--0--0--0-----0---0--0--0--0--0--0------|

[Chorus]
       Was too close to something         that was already mine
e|---------------------------------|-----------------------------------------|
B|---------------------------------|-----------------------------------------|
G|---------------------------------|-----------------------------------------|
D|-5-5-5-5-5-5-5-5-5-5-5-5-5-5-5-5-|-----------------------------------------|
A|-x-x-x-x-x-x-x-x-x-x-x-x-x-x-x-x-|-----------------------------------------|
G|-0-0-0-0-0-0-0-0-0-0-0-0-0-0-0-0-|-3-3-3-3-3-3-3-3-10-10-10-10-10-10-10-10-|

           Too far from perfect       to spend my life trying
e|---------------------------------|---------------------------------|
B|---------------------------------|---------------------------------|
G|---------------------------------|---------------------------------|
D|-5-5-5-5-5-5-5-5-5-5-5-5-5-5-5-5-|---------------------------------|
A|-x-x-x-x-x-x-x-x-x-x-x-x-x-x-x-x-|---------------------3-----------|
G|-0-0-0-0-0-0-0-0-0-0-0-0-0-0-0-0-|-3-3-3-3-3-3-3-3--3--5-----------|

[Refrain/solo]
e|-----------------------------|
B|-----------------------------|
G|-12-12--16-16--10-10--12-12--| x8
D|-x--x---x--x---x--x---x--x---|
A|-10-10--14-14--8--8---10-10--|
G|-0--0---0--0---0--0---0--0---|

                                                  Say whatever you wanna say man...
e|------------------------------------|---------------------------------------------|
B|------------------------------------|---------------------------------------------|
G|------------------------------------|---------------------------------------------| 
D|-x---------------x-x-x--------------|-x-x-x---------------------------------------|
A|-x--10-10-10-10--x-x-x--10-10-10-10-|-x-x-x--10-10-10-10--10-12/14-14-14-12-10-12-|
G|-x--0--0--0--0---x-x-x--0--0--0--0--|-x-x-x--0--0--0--0---0--0-----0--0--0--0--0--|
 
                                                                                  Too close to something  
                                                                                  that was already mine
e|------------------------------------|---------------------------------------------|----------|
B|------------------------------------|---------------------------------------------|----------|
G|------------------------------------|---------------------------------------------|----------|
D|-x---------------x-x-x--------------|-x-x-x---------------------------------------|----------|
A|-x--10-10-10-10--x-x-x--10-10-10-10-|-x-x-x--10-10-10-10--10-12/14-14-14-12-10-12-|-10-------|
G|-x--0--0--0--0---x-x-x--0--0--0--0--|-x-x-x--0--0--0--0---0--0-----0--0--0--0--0--|-0--------|
                                                                                   (let it ring out)

[Final chorus]
          Too far from perfect        to spend my fucking life...
e|---------------------------------|---------------------------------|
B|---------------------------------|---------------------------------|
G|---------------------------------|---------------------------------|
D|-5-5-5-5-5-5-5-5-5-5-5-5-5-5-5-5-|---------------------------------|
A|-x-x-x-x-x-x-x-x-x-x-x-x-x-x-x-x-|-----------------3-3-3-3-3-3-3-3-|
G|-0-0-0-0-0-0-0-0-0-0-0-0-0-0-0-0-|-3-3-3-3-3-3-3-3-5-5-5-5-5-5-5-5-|

           TRYING
e|---------------------------------|-----------------------------------------|
B|---------------------------------|-----------------------------------------|
G|---------------------------------|-----------------------------------------|
D|-5-5-5-5-5-5-5-5-5-5-5-5-5-5-5-5-|-----------------------------------------|
A|-x-x-x-x-x-x-x-x-x-x-x-x-x-x-x-x-|-----------------------------------------|
G|-0-0-0-0-0-0-0-0-0-0-0-0-0-0-0-0-|-3-3-3-3-3-3-3-3-10-10-10-10-10-10-10-10-|

e|---------------------------------|---------------------------------|
B|---------------------------------|---------------------------------|
G|---------------------------------|---------------------------------|
D|-5-5-5-5-5-5-5-5-5-5-5-5-5-5-5-5-|---------------------------------|
A|-x-x-x-x-x-x-x-x-x-x-x-x-x-x-x-x-|-----------------3-3-3-3-3-3-3-3-|
G|-0-0-0-0-0-0-0-0-0-0-0-0-0-0-0-0-|-3-3-3-3-3-3-3-3-5-5-5-5-5-5-5-5-|

      oh oh, oh oh...
e|---------------------------------|-----------------------------------------|
B|---------------------------------|-----------------------------------------|
G|---------------------------------|-----------------------------------------|
D|-5-5-5-5-5-5-5-5-5-5-5-5-5-5-5-5-|-----------------------------------------|
A|-x-x-x-x-x-x-x-x-x-x-x-x-x-x-x-x-|-----------------------------------------|
G|-0-0-0-0-0-0-0-0-0-0-0-0-0-0-0-0-|-3-3-3-3-3-3-3-3-10-10-10-10-10-10-10-10-|

e|---------------------------------|---------------------------------|
B|---------------------------------|---------------------------------|
G|---------------------------------|---------------------------------|
D|-5-5-5-5-5-5-5-5-5-5-5-5-5-5-5-5-|---------------------------------|
A|-x-x-x-x-x-x-x-x-x-x-x-x-x-x-x-x-|---------------------3-----------|
G|-0-0-0-0-0-0-0-0-0-0-0-0-0-0-0-0-|-3-3-3-3-3-3-3-3--3--5-----------|


GUITAR 2- Emily Armstrong 
Emily doesn't play during the intro and both verses

[Intro]-doesn't play anything
{Verse 1]-doesn't play anything

[Pre-chorus 1]
e|--------------------------------------------------|--------------------------------------------------|
B|--------------------------------------------------|--------------------------------------------------|
G|--------------------------------------------------|--------------------------------------------------| 
D|--------------------------------------------------|--------------------------------------------------|
A|-/10-10-10-10-10-10-10-10-10-10-10-10-10-10-10-10-|-10-10-10-10-10-10-10-10-10-10-10-10-10-10-10-10--|
G|--0--0--0--0--0--0--0--0--0--0--0--0--0--0--0--0--|-0--0--0--0--0--0--0--0--0--0--0--0--0--0--0--0---|

e|--------------------------------------------------|----------------------------------------------|
B|--------------------------------------------------|----------------------------------------------|
G|--------------------------------------------------|----------------------------------------------|
D|--------------------------------------------------|----------------------------------------------|
A|-/10-10-10-10-10-10-10-10-10-10-10-10-10-10-10-10-|-10-10-10-10-10-10-10-10-12/14-14-14-12-10-12-|
G|--0--0--0--0--0--0--0--0--0--0--0--0--0--0--0--0--|-0--0--0--0--0--0--0--0--0-----0--0--0--0--0--|
                                                                                            
   I'm in love, I'm in love, no I'm not oh my god I'm a liar I can taste it
e|------------------------------------|
B|------------------------------------|
G|--12--------------------------------| 
D|--x---------------------------------|
A|--10--------------------------------|
G|--0---------------------------------|
   (let it ring out)

   and you can say, you can say what you want what you will, say you don't mean it
e|------------------------------------|---------------------------------------------|
B|------------------------------------|---------------------------------------------|
G|----12-12-12-12---------------------|----------------------12-12-12-12--12-12-----| 
D|-x--x--x--x--x----------------------|----------------------x--x--x--x---x--x------|
A|-x--10-10-10-10---------------------|----------------------10-10-10-10--10-10-----|
G|-x--0--0--0--0----------------------|----------------------0--0--0--0---0--0------|
  
  Cause you've got your innocent thoughts...
  fixated, fixated li-i-i-fe
e|----------------------------------------|
B|----------------------------------------|
G|-4--------------------------------------| x2
D|-5--------------------------------------|
A|-5--------------------------------------|
G|-0--------------------------------------|

  C'mon!
e|-------------------------------------------------|-------------------------------------------------|
B|-------------------------------------------------|-------------------------------------------------|
G|-12-12-12-12-12-12-12-12-12-12-12-12-12-12-12-12-|-12-12-12-12-12-12-12-12-12-12-12-12-12-12-12-12-|
D|-x--x--x--x--x--x--x--x--x--x--x--x--x--x--x--x--|-x--x--x--x--x--x--x--x--x--x--x--x--x--x--x--x--|
A|-10-10-10-10-10-10-10-10-10-10-10-10-10-10-10-10-|-10-10-10-10-10-10-10-10-10-10-10-10-10-10-10-10-|
G|-0--0--0--0--0--0--0--0--0--0--0--0--0--0--0--0--|-0--0--0--0--0--0--0--0--0--0--0--0--0--0--0--0--|

  C'mon!
e|-------------------------------------------------|-------------------------------------------------|
B|-------------------------------------------------|-------------------------------------------------|
G|-12-12-12-12-12-12-12-12-12-12-12-12-12-12-12-12-|--12-12-12-12-12-12----17--17-17-17-17-17-17-----|
D|-x--x--x--x--x--x--x--x--x--x--x--x--x--x--x--x--|--x--x--x--x--x--x-----x---x--x--x--x--x--x------|
A|-10-10-10-10-10-10-10-10-10-10-10-10-10-10-10-10-|--10-10-10-10-10-10----15--15-15-15-15-15-15-----|
G|-0--0--0--0--0--0--0--0--0--0--0--0--0--0--0--0--|--0--0--0--0--0--0-----0---0--0--0--0--0--0------|

[Chorus]
        Too close to something                            that was already mine
e|-------------------------------------------------|-----------------------------------------|
B|-8--8--8--8--8--8--8--8--8--8--8--8--8--8--8--8--|-----------------------------------------|
G|-0--0--0--0--0--0--0--0--0--0--0--0--0--0--0--0--|-----------------------------------------|
D|-x--x--x--x--x--x--x--x--x--x--x--x--x--x--x--x--|-----------------------------------------|
A|-10-10-10-10-10-10-10-10-10-10-10-10-10-10-10-10-|-----------------------------------------|
G|-0--0--0--0--0--0--0--0--0--0--0--0--0--0--0--0--|-3-3-3-3-3-3-3-3-10-10-10-10-10-10-10-10-|

            Too far from perfect                      to spend my life trying
e|-------------------------------------------------|---------------------------------|
B|-8--8--8--8--8--8--8--8--8--8--8--8--8--8--8--8--|---------------------------------|
G|-0--0--0--0--0--0--0--0--0--0--0--0--0--0--0--0--|---------------------------------|
D|-x--x--x--x--x--x--x--x--x--x--x--x--x--x--x--x--|---------------------------------|
A|-10-10-10-10-10-10-10-10-10-10-10-10-10-10-10-10-|-----------------3-3-3-3-3-3-3-3-|
G|-0--0--0--0--0--0--0--0--0--0--0--0--0--0--0--0--|-3-3-3-3-3-3-3-3-5-5-5-5-5-5-5-5-|

[Verse 2]-doesn't play anything
 
[Pre-chorus 2]
   If I'm in love, I'm in love, well I'm not oh my god I'm a liar I can taste it
e|------------------------------------|------------------------------------------|
B|------------------------------------|------------------------------------------|
G|------------------------------------|------------------------------------------| 
D|-x---------------x-x-x--------------|-x-x-x------------------------------------|
A|-x--10-10-10-10--x-x-x--10-10-10-10-|-x-x-x--10-10-10-10--10-10-10-10-10-10-10-|
G|-x--0--0--0--0---x-x-x--0--0--0--0--|-x-x-x--0--0--0--0---0--0--0--0--0--0--0--|

   and you can say, you can say what you want what you will, say you don't mean it
e|------------------------------------|---------------------------------------------|
B|------------------------------------|---------------------------------------------|
G|----12-12-12-12---------------------|----------------------12-12-12-12--12-12-----| 
D|-x--x--x--x--x----------------------|----------------------x--x--x--x---x--x------|
A|-x--10-10-10-10---------------------|----------------------10-10-10-10--10-10-----|
G|-x--0--0--0--0----------------------|----------------------0--0--0--0---0--0------|
  
  Cause you've got your innocent thoughts...
  fixated, fixated li-i-i-fe
e|----------------------------------------|
B|----------------------------------------|
G|-4--------------------------------------| x2
D|-5--------------------------------------|
A|-5--------------------------------------|
G|-0--------------------------------------|

  Oh c'mon!
e|-------------------------------------------------|-------------------------------------------------|
B|-------------------------------------------------|-------------------------------------------------|
G|-12-12-12-12-12-12-12-12-12-12-12-12-12-12-12-12-|--12-12-12-12-12-12----17--17-17-17-17-17-17-----|
D|-x--x--x--x--x--x--x--x--x--x--x--x--x--x--x--x--|--x--x--x--x--x--x-----x---x--x--x--x--x--x------|
A|-10-10-10-10-10-10-10-10-10-10-10-10-10-10-10-10-|--10-10-10-10-10-10----15--15-15-15-15-15-15-----|
G|-0--0--0--0--0--0--0--0--0--0--0--0--0--0--0--0--|--0--0--0--0--0--0-----0---0--0--0--0--0--0------|

[Chorus]
       Was too close to something                            that was already mine
e|-------------------------------------------------|-----------------------------------------|
B|-8--8--8--8--8--8--8--8--8--8--8--8--8--8--8--8--|-----------------------------------------|
G|-0--0--0--0--0--0--0--0--0--0--0--0--0--0--0--0--|-----------------------------------------|
D|-x--x--x--x--x--x--x--x--x--x--x--x--x--x--x--x--|-----------------------------------------|
A|-10-10-10-10-10-10-10-10-10-10-10-10-10-10-10-10-|-----------------------------------------|
G|-0--0--0--0--0--0--0--0--0--0--0--0--0--0--0--0--|-3-3-3-3-3-3-3-3-10-10-10-10-10-10-10-10-|

            Too far from perfect                      to spend my life trying
e|-------------------------------------------------|---------------------------------|
B|-8--8--8--8--8--8--8--8--8--8--8--8--8--8--8--8--|---------------------------------|
G|-0--0--0--0--0--0--0--0--0--0--0--0--0--0--0--0--|---------------------------------|
D|-x--x--x--x--x--x--x--x--x--x--x--x--x--x--x--x--|---------------------------------|
A|-10-10-10-10-10-10-10-10-10-10-10-10-10-10-10-10-|---------------------3-----------|
G|-0--0--0--0--0--0--0--0--0--0--0--0--0--0--0--0--|-3-3-3-3-3-3-3-3--3--5-----------|

[Refrain/solo]
e|----------------------|----7-----7--7--7--7-------|
B|-/8--10b12--6~--8~----|-8--10b12-12-12-12-12r10-8-|
G|----------------------|---------------------------| x4
D|----------------------|---------------------------|
A|----------------------|---------------------------|
G|----------------------|---------------------------|

       Say whatever you wanna say man...
e|-----------|
B|-----------|
G|--12-------| 
D|--x--------|
A|--10-------|
G|--0--------|
 (let it ring out)
                                                                                 
e|---------------------------------------------------|
B|---------------------------------------------------|
G|---------------------------------------------------| x2
D|---------------------------------------------------|
A|-/10-10-10-10-10-10-10-10-/10-10-10-10-10-10-10-10-|
G|--0--0--0--0--0--0--0--0---0--0--0--0--0--0--0--0--|

  Too close to something  
  that was already mine
e|---------------------|------|
B|---------------------|------|
G|-12------------------|------|
D|-x-------------------|------|
A|-10------------------|------|
G|-0-------------------|-12\--|
(let it ring out)

[Final chorus]
             Too far from perfect                       to spend my fucking life...
e|-------------------------------------------------|---------------------------------|
B|-8--8--8--8--8--8--8--8--8--8--8--8--8--8--8--8--|---------------------------------|
G|-0--0--0--0--0--0--0--0--0--0--0--0--0--0--0--0--|---------------------------------|
D|-x--x--x--x--x--x--x--x--x--x--x--x--x--x--x--x--|---------------------------------|
A|-10-10-10-10-10-10-10-10-10-10-10-10-10-10-10-10-|-----------------3-3-3-3-3-3-3-3-|
G|-0--0--0--0--0--0--0--0--0--0--0--0--0--0--0--0--|-3-3-3-3-3-3-3-3-5-5-5-5-5-5-5-5-|

      TRYING
    oh oh, oh oh
e|----------------------|----7-----7--7--7--7-------|
B|-/8--10b12--6~--8~----|-8--10b12-12-12-12-12r10-8-|
G|----------------------|---------------------------| x4
D|----------------------|---------------------------|
A|----------------------|---------------------------|
G|----------------------|---------------------------|

************************************

| x   Dead note
| /   Slide up
| \   Slide down
| PM  Palm mute
| r   Release
| b   Bend
| ~   Vibrato

************************************
Suggest correction
Give kudos to tab author, rate the tab!
1 2 3 4 5
comments
print report bad tab
guest
You may want to rate the tab now too:
select rating
Wanna post a correction for this tab? Suggest correction