Oops, an error
Loading. Please wait.

Timed Blues tab

151 views 3 this week
no commentswrite comment
1 2 3 4 5
3 more votes to show rating
add to favorites
×
Save as Personal and add changes to this tab that will be seen only by you. Learn more ›
×
You can save this tab as Personal to edit and correct it or add notes. All changes will be seen only by you. Learn more »
launch autoscroll
font size
0
reset
how to read this tab
guitar tuner
edit
Autoscroll
slow
fast
+/-
esc
set tempo
stop
Artist: Dead Sara
Song: Timed Blues (Dead Sara)
[www.deadsara.com] (go buy their music and support them!)

Both guitars are in Drop D.
Tabbed out from this live show: https://www.youtube.com/watch?v=HO0nwpcBBy8

GUITAR 1- Siouxsie Medley 

e|-------------------------|-------------------------|   
B|---3---------------------|---3---------3-----------|   
G|-----2---2---------------|-----------------0-------| x4 
D|-0-----0----3p0-0--2p0-0-|---------------0---------|    
A|-------------------------|-3----0h2p0--------------|    
D|-------------------------|--------------------3-2--|   
(After the first time, I think she plays the low D for the first note every time
 the riff is repeated. Maybe I'm just hearing the bass though. Both sound fine.)

   Just wait it out...        ...the devil could wait
e|-------------------------|-------------------------|    |---|
B|---3---------------------|---3---------3-----------|    |---|
G|-----2---2---------------|-----------------0-------| x4 |---|
D|-------0----3p0-0--2p0-0-|---------------0---------|    |---|
A|-------------------------|-3----0h2p0--------------|    |---|
D|-0-----------------------|--------------------3-2--|    |-0-|
 
 (joins Chris after he plays the slide riff)
      Shout!, "Ooh ooh ooh" part
e|--------------------|--------------------|
B|--------------------|--------------------|
G|--------------------|--------------------| x2
D|--------------------|--------------------|
A|--------------------|--------------------|
D|-0-3-0-12--12-15-12-|-0-3-0-10--10-12-10-|

   I used to spend my time...     ...calling out too
e|-------------------------|-------------------------|    |---|   
B|---3---------------------|---3---------3-----------|    |---|   
G|-----2---2---------------|-----------------0-------| x4 |---| 
D|-0-----0----3p0-0--2p0-0-|---------------0---------|    |---|   
A|-------------------------|-3----0h2p0--------------|    |---|    
D|-------------------------|--------------------3-2--|    |-0-|  

Just wait it out....tell the devil to wait!
     *   *   *   *     *   *   * 
e|-2-2-2-2-2-2-2-2-|-2-2-2-2-2-2-----|
B|-3-3-3-3-3-3-3-3-|-3-3-3-3-3-3-----|
G|-2-2-2-2-2-2-2-2-|-2-2-2-2-2-2-----| x4
D|-0-0-0-0-0-0-0-0-|-0-0-0-0-0-0-----|
A|-----------------|-3-3-3-3-2-2-----|
D|-----------------|-------------3-2-|

(joins Chris after he plays the slide riff)
      Shout!, "Ooh ooh ooh" part
e|--------------------|--------------------|
B|--------------------|--------------------|
G|--------------------|--------------------| x4
D|--------------------|--------------------|
A|--------------------|--------------------|
D|-0-3-0-12--12-15-12-|-0-3-0-10--10-12-10-|

      I could have been your lover...
      ...I will never have to try
e|-------------------------------------|---|
B|-------------------------------------|---|
G|-------------------------------------|---| x4
D|-3/5-5-5--3/5-5-5--3/5-5-5--2/3--2/3-|-0-|
A|-3/5-5-5--3/5-5-5--3/5-5-5--2/3--2/3-|-0-|
D|-3/5-5-5--3/5-5-5--3/5-5-5--2/3--2/3-|-0-|

e|-------|
B|-------|
G|-------| x4
D|-------|
A|-------|
D|-3-2-0-|
(Let it ring out)

(joins Chris after he plays the slide riff)
e|--------------------|
B|--------------------|
G|--------------------|
D|-/12--/12--/12--/12-|
A|-/12--/12--/12--/12-|
D|-/12--/12--/12--/12-|

      Shout!, "Ooh ooh ooh" part
e|--------------------|--------------------|
B|--------------------|--------------------|
G|--------------------|--------------------| x2
D|--------------------|--------------------|
A|--------------------|--------------------|
D|-0-3-0-12--12-15-12-|-0-3-0-10--10-12-10-|

   As time stands still, it's all over 
e|--------------------|--------------------|--------------------|--------------------|
B|--------------------|--------------------|--------------------|--------------------|
G|--------------------|--------------------|--------------------|--------------------| x2
D|---------/15~~-15~~-|---------/17~~-17~~-|--------------------|--------------------|
A|--------------------|--------------------|--------------------|--------------------|
D|-0-3-0--------------|-0-3-0--------------|-0-3-0-12--12-15-12-|-0-3-0-10--10-12-10-|


GUITAR 2- Chris Null (plays slide guitar)

[I can't indicate the speed of the slides here so you need to listen to the song to get it]

(starts after Siouxsie plays intro twice)
e|---------|---------|---------|
B|---------|---------|---------|
G|---------|---------|---------|
D|---------|---------|---------|
A|-7/12~\--|--7/12~--|--12\----|
D|-7/12~\--|--7/12~--|--12\----|

   ...in death!
e|-----------------------------|-----------------------------|-----------------------------|------|
B|-----------------------------|-----------------------------|-----------------------------|------|
G|-----------------------------|-----------------------------|-----------------------------|------|
D|-0-2/3-0-/12--12-12/15-15\12-|-0-2/3-0-/10--10-10/12-12\10-|-0-2/3-0-/12--12-12/15-15\12-|-3~/5-|
A|-0-2/3-0-/12--12-12/15-15\12-|-0-2/3-0-/10--10-10/12-12\10-|-0-2/3-0-/12--12-12/15-15\12-|-3~/5-|
D|-0-2/3-0-/12--12-12/15-15\12-|-0-2/3-0-/10--10-10/12-12\10-|-0-2/3-0-/12--12-12/15-15\12-|-3~/5-|

      Shout!, "Ooh ooh ooh" part
e|-----------------|-----------------|-----------------|-----------------|
B|-13/15-15-15\13~-|-13/15-15-15\18~-|-13/15-15-15\13~-|-15/18-18-18\13~-|
G|-----------------|-----------------|-----------------|-----------------|
D|-----------------|-----------------|-----------------|-----------------|
A|-----------------|-----------------|-----------------|-----------------|
D|-----------------|-----------------|-----------------|-----------------|

[haven't figured out what he plays at this part, will update tab when i do]

   ...in death!
e|-----------------------------|-----------------------------|-----------------------------|------|
B|-----------------------------|-----------------------------|-----------------------------|------|
G|-----------------------------|-----------------------------|-----------------------------|------|
D|-0-2/3-0-/12--12-12/15-15\12-|-0-2/3-0-/10--10-10/12-12\10-|-0-2/3-0-/12--12-12/15-15\12-|-3~/5-|
A|-0-2/3-0-/12--12-12/15-15\12-|-0-2/3-0-/10--10-10/12-12\10-|-0-2/3-0-/12--12-12/15-15\12-|-3~/5-|
D|-0-2/3-0-/12--12-12/15-15\12-|-0-2/3-0-/10--10-10/12-12\10-|-0-2/3-0-/12--12-12/15-15\12-|-3~/5-|

    Shout!, "Ooh ooh ooh" part,  ...As time stands still, it's all over
e|-----------------|-----------------|-----------------|-----------------|
B|-13/15-15-15\13~-|-13/15-15-15\18~-|-13/15-15-15\13~-|-15/18-18-18\13~-|
G|-----------------|-----------------|-----------------|-----------------| x2
D|-----------------|-----------------|-----------------|-----------------|
A|-----------------|-----------------|-----------------|-----------------|
D|-----------------|-----------------|-----------------|-----------------|

e|---------------------------------------------|-----|
B|-------12----------12----------12------------|-----|
G|-10/12----12-10/12----12-10/12----12-/10/-10-|-/7~-| x2
D|---------------------------------------------|-----|
A|---------------------------------------------|-----|
D|---------------------------------------------|-----|

e|---------------------------------------------|--------|
B|-------12----------12----------12------------|-12/15~-|
G|-10/12----12-10/12----12-10/12----12-/10/-10-|--------| 
D|---------------------------------------------|--------|
A|---------------------------------------------|--------|
D|---------------------------------------------|--------|

e|---------------------------------------------|-----|
B|-------12----------12----------12------------|-----|
G|-10/12----12-10/12----12-10/12----12-/10/-10-|-/7~-| 
D|---------------------------------------------|-----|
A|---------------------------------------------|-----|
D|---------------------------------------------|-----|

   ...in death!
e|-----------------------------|-----------------------------|
B|-----------------------------|-----------------------------|
G|-----------------------------|-----------------------------|
D|-0-2/3-0-/12--12-12/15-15\12-|-0-2/3-0-/10--10-10/12-12\10-|
A|-0-2/3-0-/12--12-12/15-15\12-|-0-2/3-0-/10--10-10/12-12\10-|
D|-0-2/3-0-/12--12-12/15-15\12-|-0-2/3-0-/10--10-10/12-12\10-|

e|-----------------------------|--------------|
B|-----------------------------|--------------|
G|-----------------------------|--------------|
D|-0-2/3-0-/12--12-12/15-15\12-|--------------|
A|-0-2/3-0-/12--12-12/15-15\12-|-/15-/15-/15~-|
D|-0-2/3-0-/12--12-12/15-15\12-|--------------|


            Shout!, "Ooh ooh ooh" part  
e|-----------------|-----------------|-----------------|-----------------|
B|-13/15-15-15\13~-|-13/15-15-15\18~-|-13/15-15-15\13~-|-15/18-18-18\13~-|
G|-----------------|-----------------|-----------------|-----------------| 
D|-----------------|-----------------|-----------------|-----------------|
A|-----------------|-----------------|-----------------|-----------------|
D|-----------------|-----------------|-----------------|-----------------| 

   As time stands still, it's all over
e|-----------------|-----------------|-----------------|-----------------|
B|-----------------|-----------------|-13/15-15-15\13~-|-15/18-18-18\13~-|
G|-----------------|-----------------|-----------------|-----------------| x2
D|-0-2/3-0---------|-0-2/3-0---------|-----------------|-----------------|
A|-0-2/3-0-/17~-17-|-0-2/3-0-/20~-20-|-----------------|-----------------|
D|-0-2/3-0---------|-0-2/3-0---------|-----------------|-----------------|


************************************

| h   Hammer-on
| p   Pull-off
| *   Accented note
| /   Slide up
| \   Slide down
| ~   Vibrato

************************************
Suggest correction
Creating personal tab
Creating personal tab
You can edit any tab online and save it as your Personal.

You can edit, replace or remove any tab part or add personal notes – all changes will be seen only by you.

Personal tabs can be accessed anytime from any device, even offline.
Learn more »
Give kudos to tab author, rate the tab!
1 2 3 4 5
comments
print report bad tab
guest
You may want to rate the tab now too:
select rating
Wanna post a correction for this tab? Suggest correction