Oops, an error
Loading. Please wait.

Weatherman Bass Tab

version 1
version 1

Whole song

5,534 views 3 this week
no commentswrite comment
1 2 3 4 5
1 last vote to show rating
add to favorites
launch autoscroll
font size
0
reset
guitar tuner
Autoscroll
slow
fast
+/-
esc
set tempo
stop
Help us to improve Ultimate-Guitar.com Take our survey!
×
Difficulty
novice
Dead Sara-Weatherman

Guitar solo 8 measures

G------------------------------------------------------------------------------------|
D------------5--3--5---------------5--3--5---------------5--3--5---------5-----------|
A------------------------------------------------------------------------------------|
E--3--3---------------------3--3------------------3--3---------------3---------------|

X2

G------------------------------------------------------------------------------------|
D------------------------------------------------------------------------------------|
A---------1--3--5--3--3--5--3--1--3--------------------------------------------------|
E---3--3-----------------------------------------------------------------------------|

X4

Singer comes in on 3rd time

G------------------------------------------------------------------------------------|
D--------------------------------------------------------------------------5-5-5-5---|
A-------------------------------------------------------3-3-3-3----------------------|
E---3-3-3-3-3-3-3-3-3-3-3-3-3-3-3-3---3-3-3-3--------------------3-3-3-3-------------|

Note* These are 8th notes and should be twice as many as written^

G---------------------------|
D---------------------------|
A---------------------------|
E-3 let ring----3 let ring--|

G------------------------------------------------------------------------------------|
D------------5--3--5---------------5--3--5---------------5--3--5---------5-----------|
A------------------------------------------------------------------------------------|
E--3--3---------------------3--3------------------3--3---------------3---------------|

X2

G----------------------5------------------------------------------------------------|
D-----------------------------------------------------------------------------------|
A---3--3--3--3----------------------------------------------------------------------|
E-----------------3-----------------------------------------------------------------|


G------------------------------------------------------------------------------------|
D------------5--3--5---------------5--3--5-------------------------------------------|
A------------------------------------------------------------------------------------|
E--3--3---------------------3--3-----------------------------------------------------|


G----------------------5------------------------------------------------------------|
D-----------------------------------------------------------------------------------|
A---3--3--3--3----------------------------------------------------------------------|
E-----------------3-----------------------------------------------------------------|

G------------------------------------------------------------------------------------|
D------------5--3--5---------------5--3--5---------------5--3--5---------5-----------|
A------------------------------------------------------------------------------------|
E--3--3---------------------3--3------------------3--3---------------3---------------|

let ring

G------------------------------------------------------------------------------------|
D------------------------------------------------------------------------------------|
A---------1--3--5--3--3--5--3--1--3--------------------------------------------------|
E---3--3-----------------------------------------------------------------------------|
X2

G------------------------------------------------------------------------------------|
D---------------------------------------------------------------------------5-5-5-5--|
A-------------------------------------------------------3-3-3-3----------------------|
E---3-3-3-3-3-3-3-3-3-3-3-3-3-3-3-3---3-3-3-3--------------------3-3-3-3-------------|

G---------------------------|
D---------------------------|
A---------------------------|
E-3 let ring----3 let ring--|

G------------------------------------------------------------------------------------|
D------------5--3--5---------------5--3--5---------------5--3--5---------5-----------|
A------------------------------------------------------------------------------------|
E--3--3---------------------3--3------------------3--3---------------3---------------|

X2

G----------------------5------------------------------------------------------------|
D-----------------------------------------------------------------------------------|
A---3--3--3--3----------------------------------------------------------------------|
E-----------------3-----------------------------------------------------------------|


G------------------------------------------------------------------------------------|
D------------5--3--5---------------5--3--5-------------------------------------------|
A------------------------------------------------------------------------------------|
E--3--3---------------------3--3-----------------------------------------------------|

X2

G----------------------5------------------------------------------------------------|
D-----------------------------------------------------------------------------------|
A---3--3--3--3----------------------------------------------------------------------|
E-----------------3-----------------------------------------------------------------|


G------------------------------------------------------------------------------------|
D------------5--3--5---------------5--3--5-------------------------------------------|
A------------------------------------------------------------------------------------|
E--3--3---------------------3--3-----------------------------------------------------|

X a lot (interlude)

Come back in
I sing for the melody and I sing for reason..

G------------------------------------------------------------------------------------|
D------------5--3--5---------------5--3--5---------------5--3--5---------5-----------|
A------------------------------------------------------------------------------------|
E--3--3---------------------3--3------------------3--3---------------3---------------|

X2

G----------------------5------------------------------------------------------------|
D-----------------------------------------------------------------------------------|
A---3--3--3--3----------------------------------------------------------------------|
E-----------------3-----------------------------------------------------------------|

G------------------------------------------------------------------------------------|
D------------5--3--5---------------5--3--5-------------------------------------------|
A------------------------------------------------------------------------------------|
E--3--3---------------------3--3-----------------------------------------------------|

X1

G-----------------------------------|
D-----------------------------------|
A-----------------------------------|
E-3--3--6--6--8--8--10--10--13--15--|

G------------------------------------------------------------------------------------|
D------------5--3--5---------------5--3--5---------------5--3--5---------5-----------|
A------------------------------------------------------------------------------------|
E--3--3---------------------3--3------------------3--3---------------3---------------|
Let Ring Last time

X2
Suggest correction
Give kudos to tab author, rate the tab!
1 2 3 4 5
comments
print report bad tab
guest
You may want to rate the tab now too:
select rating
Wanna post a correction for this tab? Suggest correction