Oops, an error
Loading. Please wait.

Weatherman Bass Tab

version 2
version 2

Whole song

2,488 views 6 this week
1 commentread comment
1 2 3 4 5
excellent!
x 3
add to favorites
launch autoscroll
font size
0
reset
guitar tuner
Autoscroll
slow
fast
+/-
esc
set tempo
stop
Help us to improve Ultimate-Guitar.com Take our survey!
×
Author
Difficulty
intermediate
Dead Sara – Weatherman
(tabbed by jorge schredder)


Guitar intro 8 measures

G---------------------------------------------------------------------------|
D---------------------------------------------------------------------------|
A---------------------------------------------------------------------------|
E---3--3/15-13-15--------3--3/15-13-15--------3--3/15-13-15--------3/15-----|
X2 Bridge

G--------------------------------------|------------------------------------|
D--------------------------------------|------------------------------------|
A---------1--3--5--3--3--5--3--1--3-3--|------------------------------------|
E-\-3--3-------------------------------|---3/15-3---------------------------|
X4 Verse        Part I                          pickup before the second turn
(singer comes in on 3rd time)

G--------------------------------------------------------------------------|
D--------------------------------------------------------------------------|
A---------------------------------------------3-3-3-3----------------------|
E-\-3-3-3-3-3-3-3-3-3-3-3-3-3-3-3-3---3-3-3-3----------3-3-3-3/15-15-15-15-|
Verse Part II

G-------------------------------|
D-------------------------------|
A-------------------------------|
E-3 let ring----3 let ring-/15--|

X2 Bridge (1:10)

G---------------------------------------------------------------------------|
D---------------------------------------------------------------------------|
A---3--3--3--3---------1----------------------------------------------------|
E-----------------3-3-------------------------------------------------------|

G--------------------------------------------|------------------------------|
D--------------------------------------------|------------------------------|
A--------------------------------------------|------------------------------|
E--3--3/15-13-15--------3--3/15-13-15--------|-3----------------------------|
x2 Chorus                                    (at the 2. time (let ring))

G---------------------------------------------------------------------------|
D---------------------------------------------------------------------------|
A---------1--3--5--3--3--5--3--1--3-3---------------------------------------|
E-\-3--3--------------------------------------------------------------------|
X2 Verse Part I
Verse Part II

X2 Bridge (02:13)

X2 Chorus (02:25)

G----------------------------------------|---------------|
D----------------------------------------|---------------|
A----------------------------------------|---------------|
E---3—3(/)15-13-15-----------------------|-3-------------|
X32 Interlude (until 24 without slide)     (let ring)

X2 Bridge (03:39)

X2 Chorus (03:50)

X2 Bridge (04:01)
E---3--3/15-13-15--------3--3/15-13-15--------3--3/15-13-15--------15\3-----|
                                                     (second time slide down)
Suggest correction
What's this?
You can suggest a correction to this tab. Community and Mods will review your correction and vote to approve or reject it.
comments
We did not receive enough feedback on this tab! Please rate:
print report bad tab
1 2 3 4 5
1 comment total.
0 reply
jorge schredder 67 wrote on January 27 2013, 03:12 pm

hey folks,
the first part of the chorus is played this way (E-String)...

G------------------------------------------------------------------------|
D------------------------------------------------------------------------|
A---3--3--3--3---------1-------------------------------------------------|
E-----------------1-1----------------------------------------------------|

yours,
j.s.

guest
You may want to rate the tab now too:
select rating
Please do not post tabs as comments. Select "correction" instead!