Oops, an error
Loading. Please wait.

The Modern Muse Tab

981 views 3 this week
no commentswrite comment
1 2 3 4 5
3 more votes to show rating
add to favorites
launch autoscroll
font size
0
reset
how to read this tab
guitar tuner
Autoscroll
slow
fast
+/-
esc
set tempo
stop
Help us to improve Ultimate-Guitar.com Take our survey!
×
INTRO:
RIFF 1
e|------------------------------------|
A|------------------------------------|
D|774477447-4-2-22-774477447-9-11-1111|
G|------------------------------------|
B|------------------------------------|
E|------------------------------------|

e|--------------------------------|
A|--------------------------------|
D|11-119-7-11-119-9-99999999999999|
G|----------------0-00000000000000|
B|--------------------------------|
E|--------------------------------|

e|------------------------------------|
A|------------------------------------|
D|774477447-4-2-22-774477447-9-11-1111|
G|------------------------------------|
B|------------------------------------|
E|------------------------------------|


e|--------------------------------|
A|--------------------------------|
D|11-119-7-11-119-----------------|
G|----------------0-00000000000000|
B|----------------0-00000000000000|
E|--------------------------------|

VERSE:
RIFF 2
e|----------------| \                \
A|----------------|  \                \
D|-66677664-6-2-22|   \  x2            \
G|----------------|   /                 \
B|----------------|  /                   \
E|----------------| /                     \
                                          /   x2
e|--------------------------------|      /
A|--------------------------------|     /
D|-2-24-6--2-24-6-6666666699999999|    /
G|----------------6666666699999999|   /
B|--------------------------------|  /
E|--------------------------------| /


CHORUS:
F#m

e|-------|
A|65432~-|
D|-------|
G|-------|
B|-------|
E|-------|
 
A Bm A E

VERSE

CHORUS

E

A E (do this for a while)

RIFF 2

A
Suggest correction
Give kudos to tab author, rate the tab!
1 2 3 4 5
comments
print report bad tab
guest
You may want to rate the tab now too:
select rating
Wanna post a correction for this tab? Suggest correction