Oops, an error
Loading. Please wait.

Stop Im Already Dead tab

version 3
version 3

Whole song

1,366 views 15 this week
1 commentread comment
1 2 3 4 5
1 last vote to show rating
add to favorites
×
Save as Personal and add changes to this tab that will be seen only by you. Learn more ›
×
You can save this tab as Personal to edit and correct it or add notes. All changes will be seen only by you. Learn more »
launch autoscroll
font size
0
reset
how to read this tab
guitar tuner
edit
Autoscroll
slow
fast
+/-
esc
set tempo
stop
Deadboy & the Elephantmen - Stop, I'm Already Dead
Track 1 from the album "We Are Night Sky" (2006 Fat Possum Records).

Tabbed by Isaac Murguia, October 2015.
Originally uploaded to Ultimate-Guitar.com
Contact: www.youtube.com/user/Goadiroth

Tuning: Eb Standard + a quarter higher.
        ...meaning that it is in between Eb standard and E standard.

. = palm mute
1.2.3.  = 1st ending, 2nd ending, etc.

INTRO A: (clean tone)
eb|------------------------------------------------------|
Bb|------------------------------------------------------|
Gb|------------------------------------------------------|
Db|-77777777-77777770--1212121212121212-12121212121212-0-|
Ab|-77777777-77777770--1212121212121212-12121212121212-0-|
Eb|-55555555-55555550--1010101010101010-10101010101010-0-| [x2]

INTRO B: (distorted)                     1.                 2.
eb|-------------------------------------|------------------|------------------|
Bb|-------------------------------------|------------------|------------------|
Gb|---7--------7-----------12-----------|-----12-----------|-----12-----------|
Db|---7--------7-----------12-----------|-----12-----------|-----12-----12-12-|
Ab|-77777777-77777777--1212121212121212-|-1212121212121212-|-1212121212-12-12-|
Eb|-55-55555-55-55555--1010--1010101010-|-1010--1010101010-|-1010--1010-10-10-|
    .. ... . .. ... .  . .   . . .   .    . .   . . .   .    . .   . .

VERSE A:                                 1.2.               3.
eb|-------------------------------------|------------------|------------------|
Bb|-------------------------------------|------------------|------------------|
Gb|-------------------------------------|------------------|----baby-we-can---|
Db|-77777777-77777770--1212121212121212-|-12121212121212-0-|-12121212121212---|
Ab|-77777777-77777770--1212121212121212-|-12121212121212-0-|-12121212121212---|
Eb|-55555555-55555550--1010101010101010-|-10101010101010-0-|-10101010101010---|

PRE-CHORUS: (1:01)                       1.                 2.
eb|-------------------------------------|------------------|------------------|
Bb|-------------------------------------|------------------|------------------|
Gb|-------------------------------------|------------------|------------------|
Db|-77777777-77777770--1212121212121212-|-12121212121212-0-|-15-15-15-14-14-8-|
Ab|-77777777-77777770--1212121212121212-|-12121212121212-0-|-15-15-15-14-14-8-|
Eb|-55555555-55555550--1010101010101010-|-10101010101010-0-|-13-13-13-12-12-6-|

CHORUS: (1:18)
eb|-----------------|
Bb|-----------------| i AM
Gb|-----------------|       ALLLready
Db|-7-------5---2---|
Ab|-7-------5---2---|   DEAD....
Eb|-5-------3---0---|

BRIDGE (or whatever you wanna call it):
eb|------------------------|--------------------------------------|
Bb|------------------------|--------------------------------------|
Gb|------------------------|--------------------------------------|
Db|-77--77------77--77-----|-1212--1212----------1212--1212-------|
Ab|-77--77------77--77-----|-1212--1212----------1212--1212-------|
Eb|-55--55------55--55-----|-1010--1010----------1010--1010-------| [x4]
    1  2  3  4  1  2  3  4   1    2    3    4    1    2    3    4

Repeat PRE-CHORUS
Repeat CHORUS

ENDING CHORD:
eb|----------|
Bb|----------|
Gb|----------|
Db|-7--------|
Ab|-7--------|
Eb|-5--------|

End. Please rate! :D
If you have any questions please leave a comment! Cheers!
Suggest correction
Creating personal tab
Creating personal tab
You can edit any tab online and save it as your Personal.

You can edit, replace or remove any tab part or add personal notes – all changes will be seen only by you.

Personal tabs can be accessed anytime from any device, even offline.
Learn more »
Give kudos to tab author, rate the tab!
1 2 3 4 5
comments
print report bad tab
1 comment total.
+1 reply
xxsuppermanxx 210 Apr 09, 2017 09:18 PM

Good job. 110%.

guest
You may want to rate the tab now too:
select rating
Wanna post a correction for this tab? Suggest correction