Oops, an error
Loading. Please wait.

I Remember Bass Tab

776 views 3 this week
no commentswrite comment
1 2 3 4 5
please rate
add to favorites
launch autoscroll
font size
0
reset
guitar tuner
Autoscroll
slow
fast
+/-
esc
set tempo
stop
Help us to improve Ultimate-Guitar.com Take our survey!
×
Author
Difficulty
intermediate
-------------------------------
deadmau5 & Kaskade - I Remember
-------------------------------

Standard Tuning (EADG)

Notes:
*This is my first tab so let me know if something's wrong!
*I Remember is a ridiculously easy piece - I learnt it by ear about 6 days after picking 
up my first bass!
*This arrangement is for the 9 minute vocal mix. /watch?v=zK1mLIeXwsQ
*Opt. 1  = If you want the really easy part, play the intro where you hear the drums and 
the pre verse where you don't for the whole the song.
*Opt. 2  = The tune isn't played on bass but I put it in the arrangement anyway for the 
more experienced players.

(14 Bars Drum Solo)

Intro x4
G|----------------00000000-00000000-----------------00000000-00000000|
D|--------00000000-----------------44444444-00000000-----------------|
A|22222222-----------------------------------------------------------|
E|-------------------------------------------------------------------|

Pre Verse x2
G|----------------0~----------------------------------0~-------------|
D|--------0~------------------------4~-------0~----------------------|
A|2~-----------------------------------------------------------------|
E|-------------------------------------------------------------------|

Verse x2
G|-----------------------------------------------|
D|1~24--0------020~------1~24--0------0~202~-----|
A|----4~-442~4~---4242~------4~-442~44------4242-|
E|-----------------------------------------------|

Pre Chorus
G|---63----------63----------63----------63--7~|
D|444--424~---444--424~---444--424~---444--44--|
A|---------------------------------------------|
E|---------------------------------------------|

Chorus x2
G|76664~---76664~---4443~---6664~---|
D|----------------------------------|
A|----------------------------------|
E|----------------------------------|

Verse x2
G|-----------------------------------------------|
D|1~24--0------020~------1~24--0------0~202~-----|
A|----4~-442~4~---4242~------4~-442~44------4242-|
E|-----------------------------------------------|

Instrumental Break x2
G|----------------00000000-00000000-----------------00000000-00000000|
D|--------00000000-----------------44444444-00000000-----------------|
A|22222222-----------------------------------------------------------|
E|-------------------------------------------------------------------|

Verse x2
G|-----------------------------------------------|
D|1~24--0------020~------1~24--0------0~202~-----|
A|----4~-442~4~---4242~------4~-442~44------4242-|
E|-----------------------------------------------|

Pre Chorus
G|---63----------63----------63----------63--7~|
D|444--424~---444--424~---444--424~---444--44--|
A|---------------------------------------------|
E|---------------------------------------------|

Chorus x2
G|76664~---76664~---4443~---6664~---|
D|----------------------------------|
A|----------------------------------|
E|----------------------------------|

Out-tro x4
G|----------------00000000-00000000-----------------00000000-00000000|
D|--------00000000-----------------44444444-00000000-----------------|
A|22222222-----------------------------------------------------------|
E|-------------------------------------------------------------------|

Out-tro 2 x2
G|----------------0~----------------------------------0~-------------|
D|--------0~------------------------4~-------0~----------------------|
A|2~-----------------------------------------------------------------|
E|-------------------------------------------------------------------|

Drum solo Out-tro

THE END!!!

Hope you enjoy this tab. E-mail me at bkgillmc98@gmail.com if you have any questions!
Suggest correction
What's this?
You can suggest a correction to this tab. Community and Mods will review your correction and vote to approve or reject it.
comments
We did not receive enough feedback on this tab! Please rate:
print report bad tab
1 2 3 4 5
guest
You may want to rate the tab now too:
select rating
Please do not post tabs as comments. Select "correction" instead!