Oops, an error
Loading. Please wait.

Professional Griefers intro tab

version 1
version 1

Intro

Whole song

2,853 views 1 this week
4 commentsread comments
1 2 3 4 5
x 4
add to favorites
×
Save as Personal and add changes to this tab that will be seen only by you. Learn more ›
×
You can save this tab as Personal to edit and correct it or add notes. All changes will be seen only by you. Learn more »
launch autoscroll
font size
0
reset
how to read this tab
guitar tuner
edit
Autoscroll
slow
fast
+/-
esc
set tempo
stop
Author
first tab of mine so lynch me.
gonna keep this short because i know you don't care.
comments are appreciated.

bon appetit.
___________________________________________________________
Key:
/ OR \ = slide
  .    = stacatto
___________________________________________________________

intro (after the high-pitched bit)

d|-----------------------------------------------|
A|-----------------------------------------------|
F|-----------------------------------------------|
C|-5-5-5-5\3--5-5-5-5\3--5-5-5-5\3--5-5-5-6/8----|
G|-5-5-5-5\3--5-5-5-5\3--5-5-5-5\3--5-5-5-6/8----|
D|-3-3-3-3\1--3-3-3-3\1--3-3-3-3\1--3-3-3-4/6----|
   . . .      . . .      . . .      . . .


d|-----------------------------------------------|
A|-----------------------------------------------|
F|-----------------------------------------------|
C|-5-5-5-5\3--5-5-5-5\3--5-5-5-5\3---------------|
G|-5-5-5-5\3--5-5-5-5\3--5-5-5-5\3---------------|
D|-3-3-3-3\1--3-3-3-3\1--3-3-3-3\1--3-3-3-3\1----|
   . . .      . . .      . . .      . . .

verse
enter vocals ('i like the sound of the broken pieces...')

d|-----------------------------------------------|
A|-----------------------------------------------|
F|-----------------------------------------------|
C|-5-5-5-5\3--5-5-5-5\3--5-5-5-5\3--5-5-5-6/8----|
G|-5-5-5-5\3--5-5-5-5\3--5-5-5-5\3--5-5-5-6/8----|
D|-3-3-3-3\1--3-3-3-3\1--3-3-3-3\1--3-3-3-4/6----|
   . . .      . . .      . . .      . . .
                                  (where she sits...)

d|-------------------------------------------------|
A|-------------------------------------------------|
F|-------------------------------------------------|
C|-5-5-5-5\3--5-5-5-5\3--5-5-5-5\3--5-5-5-6/8------|
G|-5-5-5-5\3--5-5-5-5\3--5-5-5-5\3--5-5-5-6/8------|
D|-3-3-3-3\1--3-3-3-3\1--3-3-3-3\1--3-3-3-4/6------|
   . . .      . . .      . . .      . . .
                                 (...don't need this!)

prechorus
enter discordant synth (ignore it and you'll hear the guitar)

d|-----------------------------------------------|
A|-----------------------------------------------|
F|-----------------------------------------------|
C|-5-5-5-5\3--5-5-5-5\3--5-5-5-5\3--5-5-5-6/8----|
G|-5-5-5-5\3--5-5-5-5\3--5-5-5-5\3--5-5-5-6/8----|
D|-3-3-3-3\1--3-3-3-3\1--3-3-3-3\1--3-3-3-4/6----|
   . . .      . . .      . . .      . . .
                               (...a friend just like you!)

d|-----------------------------------------------|
A|-----------------------------------------------|
F|-----------------------------------------------|
C|-5-5-5-5\3--5-5-5-5\3--5-5-5-5\3--5-5-5-6-8----|
G|-5-5-5-5\3--5-5-5-5\3--5-5-5-5\3--5-5-5-6-8----|
D|-3-3-3-3\1--3-3-3-3\1--3-3-3-3\1--3-3-3-4/6----|
   . . .      . . .      . . .      . . .
                                 (...with ESP!)

            
            
Suggest correction
Creating personal tab
Creating personal tab
You can edit any tab online and save it as your Personal.

You can edit, replace or remove any tab part or add personal notes – all changes will be seen only by you.

Personal tabs can be accessed anytime from any device, even offline.
Learn more »
comments
print report bad tab
4 comments total. Showing first comments.
0 reply
avly99 10 Feb 08, 2013 10:11 AM

Good intro! What about the rest of the song?

0 reply
venvengeance 66 Mar 03, 2013 05:05 PM

will try get it on....still unsure about the chorus though...

0 reply
lzvh400 32 Jun 06, 2013 02:42 PM


e|-----------------------------------------------|
B|-----------------------------------------------|
G|-----------------------------------------------|
D|-3-3-3-3\1--3-3-3-3\1--3-3-3-3\1--3-3-3-4/6----|
A|-3-3-3-3\1--3-3-3-3\1--3-3-3-3\1--3-3-3-4/6----|
D|-3-3-3-3\1--3-3-3-3\1--3-3-3-3\1--3-3-3-4/6----|

e|-----------------------------------------------|
B|-----------------------------------------------|
G|-----------------------------------------------|
D|-3-3-3-3\1--3-3-3-3\1--3-3-3-3\1---------------|
A|-3-3-3-3\1--3-3-3-3\1--3-3-3-3\1---------------|
D|-3-3-3-3\1--3-3-3-3\1--3-3-3-3\1--3-3-3-3\1----|

guest
You may want to rate the tab now too:
select rating
Wanna post a correction for this tab? Suggest correction