Oops, an error
Loading. Please wait.

Professional Griefers bass

version 2
version 2

Whole song

1,353 views 3 this week
no commentswrite comment
1 2 3 4 5
x 4
add to favorites
×
Save as Personal and add changes to this tab that will be seen only by you. Learn more ›
×
You can save this tab as Personal to edit and correct it or add notes. All changes will be seen only by you. Learn more »
launch autoscroll
font size
0
reset
guitar tuner
edit
Autoscroll
slow
fast
+/-
esc
set tempo
stop
Author
----------------------------------------------------------------------------------
                         Professional Griefers-Deadmau5
----------------------------------------------------------------------------------
   Tabbed by: ihateallofyou
   E-mail: ihateallofyou@interia.pl
   Tuning: Standard (GDAE)
Intro
G|-------------------------------------------------------------------------------|
D|-------------------------------------------------------------------------------|
A|-8---8--8--8--6-8---8---8--8--6-8---8---8--8--6-8---8---8--10--11--------------|
E|-------------------------------------------------------------------------------|

G|-------------------------------------------------------------------------------|
D|-------------------------------------------------------------------------------|
A|-8---8--8--8--6-8---8---8--8--6-8---8---8--8--6-8---8---8--8--6----------------|
E|-------------------------------------------------------------------------------|

Verse 1
G|-------------------------------------------------------------------------------|
D|-------------------------------------------------------------------------------|
A|-8---8--8--8--6-8---8---8--8--6-8---8---8--8--6-8---8---8--10--11--------------| x4
E|-------------------------------------------------------------------------------|

Chorus 1

G|-------------------------------------------------------------------------------|
D|-------------------------------------------------------------------------------|
A|-9-9-9-9-9-9-9-11-13-13-13-13-13-13-13-13-8-8-8-8-8-8-8-8-8-8-8-8-8-8-8-8------|
E|-------------------------------------------------------------------------------|

G|-------------------------------------------------------------------------------|
D|-------------------------------------------------------------------------------|
A|-4-4-4-4-4-4-4-------------------8-8-8-8-8-8-8-8-8-8-8-8-8-8-8-----------------|
E|---------------6-6-6-6-6-6-6-6-6-----------------------------------------------|

G|-------------------------------------------------------------------------------|
D|-------------------------------------------------------------------------------|
A|-9-9-9-9-9-9-9-11-13-13-13-13-13-13-13-13-8-8-8-8-8-8-8-8-8-8-8-8-8-8-8-8------|
E|-------------------------------------------------------------------------------|

G|-------------------------------------------------------------------------------|
D|-------------------------------------------------------------------------------|
A|-4-4-4-4-4-4-4-------------------8-8-8-8-8-8-8-8-8-8-8-8-8-8-8-----------------|
E|---------------6-6-6-6-6-6-6-6-6-----------------------------------------------|

After-Chorus

G|-------------------------------------------------------------------------------|
D|-------------------------------------------------------------------------------|
A|-8--8--8---9-------------------------------------------------------------------|
E|-------------------------------------------------------------------------------|

Verse 2

G|-------------------------------------------------------------------------------|
D|-------------------------------------------------------------------------------| x2
A|-8---8--8--8--6-8---8---8--8----8---8---8--8--6-8---8---8----------------------|
E|-------------------------------------------------------------------------------| 

   
G|-------------------------------------------------------------------------------|   
D|-------------------------------------------------------------------------------|
A|-8---8--8--8--6-8---8---8--8--6-8---8---8--8--6-8---8---8--10--11--------------|
E|-------------------------------------------------------------------------------|
                                                                                       x2
    
G|-------------------------------------------------------------------------------|
D|-------------------------------------------------------------------------------|
A|-8---8--8--8--6-8---8---8--8--6-8---8---8--8--6-8---8---8-8-9------------------|
E|-------------------------------------------------------------------------------|

    
G|-------------------------------------------------------------------------------|
D|-------------------------------------------------------------------------------| x2
A|-8---8--8--8--6-8---8---8--8--6-8---8---8--8--6-8---8---8--10--11--------------|
E|-------------------------------------------------------------------------------|

Chorus 2

G|-------------------------------------------------------------------------------|
D|-------------------------------------------------------------------------------|
A|-9-9-9-9-9-9-9-11-13-13-13-13-13-13-13-13-8-8-8-8-8-8-8-8-8-8-8-8-8-8-8-8------|
E|-------------------------------------------------------------------------------|

G|-------------------------------------------------------------------------------|
D|-------------------------------------------------------------------------------|
A|-4-4-4-4-4-4-4-------------------8-8-8-8-8-8-8-8-8-8-8-8-8-8-8-8---------------|
E|---------------6-6-6-6-6-6-6-6-6-----------------------------------------------|

G|-------------------------------------------------------------------------------|
D|-------------------------------------------------------------------------------|
A|-9-9-9-9-9-9-9-11-13-13-13-13-13-13-13-13-8-8-8-8-8-8-8-8-8-8-8-8-8-8-8-8------|
E|-------------------------------------------------------------------------------|

G|-------------------------------------------------------------------------------|
D|-------------------------------------------------------------------------------|
A|-4-4-4-4-4-4-4-----------------------------------------------------------------|
E|---------------6-6-6-6-6-6-6-6-6-1-1-1-1-1-1-1-1-1-1-1-1-1-1-1-1---------------|

G|-------------------------------------------------------------------------------|
D|-------------------------------------------------------------------------------|
A|---------------------------------8-8-8-8-8-8-8-8-8-8-8-8-8-8-8-8---------------|
E|-2-2-2-2-2-2-2-6-6-6-6-6-6-6-6-6-----------------------------------------------|

G|-------------------------------------------------------------------------------|
D|-------------------------------------------------------------------------------|
A|-4-4-4-4-4-4-4-------------------8-8-8-8-8-8-8-8-8-8-8-8-8-8-8-8---------------|
E|---------------6-6-6-6-6-6-6-6-6-----------------------------------------------|

G|-------------------------------------------------------------------------------|
D|-------------------------------------------------------------------------------|
A|-9-9-9-9-9-9-9-11-13-13-13-13-13-13-13-13-8-8-8-8-8-8-8-8-8-8-8-8-8-8-8-8------|
E|-------------------------------------------------------------------------------|

G|-------------------------------------------------------------------------------|
D|-------------------------------------------------------------------------------|
A|-4-4-4-4-4-4-4-----------------------------------------------------------------|
E|--------------6-6-6-6-6-6-6-6-6-1-1-1-1-1-1-1-1-1-1-1-1-1-1-1-1----------------|

Outro

G|-------------------------------------------------------------------------------|
D|-------------------------------------------------------------------------------|
A|-8--8---8-8-9------------------------------------------------------------------|
E|-------------------------------------------------------------------------------|

G|------------------------------------------------------------12--13-------------|
D|-------------------------------------------------------------------------------|
A|-8---8--8--8--6-8---8---8--8----8---8---8--8--6-8---8---8----------------------|
E|-------------------------------------------------------------------------------| 

G|-------------------------------------------------------------------------------|
D|-------------------------------------------------------------------------------|
A|-8---8--8--8--6-8---8---8--8----8---8---8--8--6-8---8---8----------------------|
E|-------------------------------------------------------------------------------| 

G|-------------------------------------------------------------------------------|
D|-------------------------------------------------------------------------------|
A|-8---8--8--8--6-8---8---8--8--6-8---8---8--8--6-8---8---8--10--11--------------|
E|-------------------------------------------------------------------------------|

G|-------------------------------------------------------------------------------|
D|-------------------------------------------------------------------------------|
A|-8---8--8--8--6-8---8---8--8--6-8---8---8--8--6-8---8-------9------------------|
E|-------------------------------------------------------------------------------|

G|-10--10--10--10--10--10--10--10--10--10--10--10--10--10--10--10----------------|
D|-------------------------------------------------------------------------------|
A|-------------------------------------------------------------------------------|
E|-------------------------------------------------------------------------------|
Suggest correction
Creating personal tab
Creating personal tab
You can edit any tab online and save it as your Personal.

You can edit, replace or remove any tab part or add personal notes – all changes will be seen only by you.

Personal tabs can be accessed anytime from any device, even offline.
Learn more »
comments
print report bad tab
guest
You may want to rate the tab now too:
select rating
Wanna post a correction for this tab? Suggest correction