Oops, an error
Loading. Please wait.

Seeya Bass Tab

10,667 views 54 this week
3 commentsread comments
1 2 3 4 5
excellent!
x 11
add to favorites
launch autoscroll
font size
0
reset
guitar tuner
Tab Pro tools
  • play this tab
  • loop segment
  • change instrument
  • show fretboard
  • metronome
×
Best way to learn
"Seeya"
Autoscroll
slow
fast
+/-
esc
set tempo
stop
Contributor
Difficulty
novice
-------------------------------------------------------------------------------
                               Seeya - deadmau5
-------------------------------------------------------------------------------
Tabbed by: ToxicPaste
E-mail: lilpoizon@cox.net

Tuning: EADG Standard

Song: https://www.youtube.com/watch?v=8jL2DPylmhE

Notes: This is not to be confused with one of deadmau5's earlier releases, "Seeya Next Tuesday",
 as this one is a remake of it he recently made and put into his new album; while(1<2).


[intro/chorus 1 and 2] [0:18-0:34], [2:18-2:34], [4:02-4:18]

G|-------------4---|
D|-----------------|
A|-2---2---2-----0-|
E|-----------------|

[verse 1 and 2] [0:34-2:18], [2:34-4:02]

G|-------------4---|------------------|--------------------|--------5--------|
D|-----------------|------------------|-2-------------2----|-----------------|
A|-2---2---2-----0-|------------------|--------------------|-3---3-----3-----|
E|-----------------|-3---3-3--2-2-2-3-|----0--0---0------3-|-----------------|

G|-------------4---|------------------|--------------------|-----------------|
D|-----------------|------------------|-2-------------2----|-----------------|
A|-2---2---2-----0-|------------------|--------------------|--------5--------|
E|-----------------|-3---3-3--2-2-2-3-|----0--0---0------3-|-0---0-----0-----|

[instrumental solo] [4:18-5:28]

G|-------------4---|------------------|--------------------|-----------------|
D|-----------------|------------------|-2-------------2----|-----------------|
A|-2---2---2-----0-|------------------|--------------------|--------5--------|
E|-----------------|-3---3-3--2-2-2-3-|----0--0---0------3-|-0---0-----0-----|

G|-------------4---|------------------|--------------------|-----------------|
D|-----------------|------------------|-2-------------2----|-----------------|
A|-2---2---2-----0-|------------------|--------------------|-0---0--0--0---0-|
E|-----------------|-3---3-3--2-2-2-3-|----0--0---0------3-|-----------------|

[outro] [5:28-6:20]

G|-------------4---|----------------|
D|-----------------|----------------|
A|-2---2---2-------|-2---2---2------|
E|-----------------|----------------|




| /  slide up
| \  slide down
| h  hammer-on
| p  pull-off
| ~  vibrato
| +  harmonic
| x  Mute note
===============================================================================
comments
print report bad tab
3 comments total.
0 reply
micromixsound wrote on June 5 2014, 05:19 pm

Awesome song, thanks!

0 reply
gilburtgtr wrote on July 21 2014, 05:32 pm

Great tab, but in the last bar of the "Instrumental Solo", I think it is something more like:

G|--------2--------|
D|-----------------|
A|-0---0-----0---1-|
E|-----------------|

0 reply
Vorpike wrote on October 28 2014, 10:53 pm

Really? I sounds right to me the say it is.

I want to post or [tab]
guest
You may want to rate the tab now too:
select rating
Please do not post tabs as comments. Select "correction" instead!