Oops, an error
Loading. Please wait.

Some Chords Bass Tab

version 2
version 2

Whole song

1,466 views 3 this week
4 commentsread comments
1 2 3 4 5
excellent!
x 6
add to favorites
launch autoscroll
font size
0
reset
guitar tuner
Autoscroll
slow
fast
+/-
esc
set tempo
stop
Help us to improve Ultimate-Guitar.com Take our survey!
×
Author
      Artist: Deadmau5
  Song Title: Some Chords
       Album: 4x4=12
   Tabbed By: Cinthia G


 / = Slide
 t = Tap
() = Optional


G|----4---1---1--3--5-----------------------|
D|----6---2---2--4--6-----------------------|
A|------------------------------------------|
E|------------------------------------------| x12


***Optional, not necessary***
**(G|--------------------------------------|)
**(D|--------------------------------------|)
**(A|--------------------------------------|)
**(E|----4---0---0--2--4-------------------|)


**(G|----4---1---1--3--5-------------------|)
**(D|----6---2---2--4--6-------------------|)
**(A|--------------------------------------|)
**(E|----4---0---0--2--4-------------------|)


G|------------------------------------------|
D|--------6---6---6-------------------------|
A|------------------------------------------|
E|----2/4---4---4---4--4(/2)----------------| x3


G|------------------------------------------|
D|--------6---6---6-------------------------|
A|------------------------------------------|
E|----2/4---4---4----t16-t16-t16------------|


G|------------------------------------------|
D|--------6---6---6-------------------------|
A|------------------------------------------|
E|----2/4---4---4---4--4(/2)----------------| x3


G|------------------------------------------|
D|--------6---6---6------------6--6--4--2---|
A|------------------------------------------|
E|----2/4---4---4---4--4(/2)---4--4--2--0---|

**Repeat from beginning throughout song



**END
G|------------------------|-----------------|
D|------------------------|-----------------|
A|------------------------|-----------------|
E|----4---4---4-4---4---x4|--t16-t16-t16----|


G|------------------------|-----------------|
D|------------------------|-----------------|
A|------------------------|-----------------|
E|----4---4---4-4---4---x3|---4--4--2--0----|
Suggest correction
What's this?
You can suggest a correction to this tab. Community and Mods will review your correction and vote to approve or reject it.
comments
print report bad tab
4 comments total. Showing first comments. show 1 bad comment
+3 reply
LXnavarro23 52 wrote on July 12 2013, 10:12 pm

Just so you know, it IS possible to play more than one note on a bass. Like in the song "Always" by BLink-182. When the bass come in it's 2 notes at the same time. Seriously, do you even bass?

+1 reply
taylorshiroff 134 wrote on July 3 2014, 04:32 pm

This is super accurate, thank you much!

guest
You may want to rate the tab now too:
select rating
Please do not post tabs as comments. Select "correction" instead!