Oops, an error
Loading. Please wait.

Strobe tab

version 1
version 1

Whole song

Interactive

80,609 views 87 this week
10 commentsread comments
1 2 3 4 5
x 23
add to favorites
×
Save as Personal and add changes to this tab that will be seen only by you. Learn more ›
×
You can save this tab as Personal to edit and correct it or add notes. All changes will be seen only by you. Learn more »
launch autoscroll
font size
0
reset
how to read this tab
guitar tuner
edit
Autoscroll
slow
fast
+/-
esc
set tempo
stop
Author
Difficulty
intermediate
G#min-1st                       * C#min / E
E|--------------------------------12----11-7--------12-7--12------11-------|
B|----12--12--12--12--12--12--14-----9--------7--9------------12------12---|
G|--13---------------------------------------------------------------------|
D|-------------------------------------------------------------------------|
A|----------------------------------------7--7--7--7--7--7--11—-11--11--11-|
E|------11--11--11--11--11--11--11--9--9-----------------------------------|

    C#min         F#       G#min-2nd
E|--12---------14----11------14--------------16------14------12------------|
B|-----9-11-12----14-----12------12--11--12------11------12----------11----|
G|---------------------------------------------------------------13--------|
D|-------------------------------------------------------------------------|
A|---------------9--9--11--11--11--11--11-—11--11--11--11--11--11--11------|
E|----9-9--9--9------------------------------------------------------------|

     B  C#min / E                                C#min    F#    G#min-2nd
E|--------16---11-7-12-7-12-7-12---11-7-12---------14----11-|-------14--|--|
B|----14-----9-------------------9---------9-11-12----14----|---12------|--|
G|----------------------------------------------------------|-----------|--|
D|----------------------------------------------------------|-----------|--|
A|--14--14-------7-7--7-7--7-7--7-7--7-7-------------9--9---|-11--11----|--|
E|----------9-9---------------------------9-9--9--9---------|-----------|--|
                                                                        Play 3 times
E|--------16------12--------------|
B|----11------12------12--12--14--|
G|--------------------------------|
D|--------------------------------|
A|--11--11--11--11--11--11--11----|
E|--------------------------------|

            
            
Suggest correction
Creating personal tab
Creating personal tab
You can edit any tab online and save it as your Personal.

You can edit, replace or remove any tab part or add personal notes – all changes will be seen only by you.

Personal tabs can be accessed anytime from any device, even offline.
Learn more »
comments
print report bad tab
10 comments total. Showing first comments.
0 reply
Jamgasm675 52 Jul 22, 2010 06:42 AM

Dude thats amazing

+13 reply
Shamus23 10 Aug 01, 2010 07:47 PM

seriously i am soo glad there are other guitarists that respect the electronic/house genre of music. tabs awsum man! and god said let ther be music......and there was deadmau5 holding a guitar!!! lmao good tab bro. get sum more mau5 goin if u can

+1 reply
riffking 226 Jan 20, 2011 12:32 PM

haha, i learnt this on piano the other day, and was just about to tab it for funsies :)

guest
You may want to rate the tab now too:
select rating
Wanna post a correction for this tab? Suggest correction