Oops, an error
Loading. Please wait.

The Veldt intro tab

version 1
version 1

Intro

Whole song

Interactive

12,616 views 3 this week
3 commentsread comments
1 2 3 4 5
x 8
add to favorites
×
Save as Personal and add changes to this tab that will be seen only by you. Learn more ›
×
You can save this tab as Personal to edit and correct it or add notes. All changes will be seen only by you. Learn more »
launch autoscroll
font size
0
reset
how to read this tab
guitar tuner
edit
Autoscroll
slow
fast
+/-
esc
set tempo
stop
Difficulty
-------------------------------------------------------------------------------
                             The Veldt - Deadmau5
-------------------------------------------------------------------------------
Tabbed by: SaakNeMah
E-mail: - 

First tab, intro only.

Tuning: Standard

e|---------------------------------------------------------------------------|
B|------------------2-0-2-0----333-222---------------------------------------|
G|-1-1-1-2-2-2-2-1---------2-----------22222222------------------------------|
D|---------------------------------------------------------------------------|
A|---------------------------------------------------------------------------|
E|---------------------------------------------------------------------------|

e|---------------------------------------------------------------------------|
B|---------------------------2--333-222--------------------------------------|
G|-1-1-1----------1-2-4-2-1-------------2------------------------------------|
D|------ 0-0-0-0-------------------------------------------------------------|
A|---------------------------------------------------------------------------|
E|---------------------------------------------------------------------------|

            
            
Suggest correction
Creating personal tab
Creating personal tab
You can edit any tab online and save it as your Personal.

You can edit, replace or remove any tab part or add personal notes – all changes will be seen only by you.

Personal tabs can be accessed anytime from any device, even offline.
Learn more »
comments
print report bad tab
3 comments total.
0 reply
werker93 10 Jul 22, 2012 07:51 PM

The rythem is a little off but awsome tab dude!

0 reply
Piano13oss 10 Sep 20, 2012 04:59 PM

Hey, would it be possible if you could post maybe the cords?

0 reply
SaakNeMah 10 Jan 04, 2013 08:15 AM

It should be something like this:

e|-0---0---0---0---0---0---0--|
B|-0---0---2---0---3---2---0--|
G|-1---2---2---2---2---2---1--|
D|-2---4---2---2---0---2---2--|
A|-2---4---0---0-------0---2--|
E|-0---0---0---0-------0---0--|


You can just strum it to get an acoustic sound, or only downstrokes to get the rythm as in the original. Add some constant palm-muting to sound a bit like the typical deadmau5 backing synths. You can play A - Asus2 - A - Asus2 single strums each to integrate some of the lead.

guest
Wanna post a correction for this tab? Suggest correction