Oops, an error
Loading. Please wait.

Deeper Water Tab

1,937 views 3 this week
1 commentread comment
1 2 3 4 5
please rate
add to favorites
launch autoscroll
font size
0
reset
how to read this tab
guitar tuner
Autoscroll
slow
fast
+/-
esc
set tempo
stop
Help us to improve Ultimate-Guitar.com Take our survey!
×
-------------------------------------------------------------------------------                                          
     "Deeper Water"
                                DEADSTAR
                             By: Rebecca Chen
-------------------------------------------------------------------------------

Standard tuning

Intro, and Fill at the start of verses:

   C                     G
e|------------------------------------------------------------------|
B|------------------------------------------------------------------|
G|---4-2-0-----2-4-2-0--------4-2-0----2-4-2-0---------(2x)---------|
D|-2-------2-----------2-0--0-------0----------2-0------------------|
A|------------------------------------------------------------------|
E|------------------------------------------------------------------|

Verses:

     G    C
e|------------------------------------------------------------------|
B|------------------------------------------------------------------|
G|--------5----------(as many strums as needed)---------------------|
D|---5----5---------------------------------------------------------|
A|---5----3---------------------------------------------------------|
E|---3--------------------------------------------------------------|


Fill at the end of verse:

e|------------------------------------------------------------------|
B|------------------------------------------------------------------|
G|------------------------------------------------------------------|
D|------------------------------------------------------------------|
A|-----0-2-3-----Then straight to Chorus----------------------------|
E|---3--------------------------------------------------------------|

Chorus:

   D                  C           G
e|------------------------------------------------------------------|
B|------------------------------------------------------------------|
G|-7-7-7-7-7-7-7-7----5-5-5-5---------------------------------------|
D|-7-7-7-7-7-7-7-7----5-5-5-5-----5-5-5-5---------------------------|
A|-5-5-5-5-5-5-5-5----3-3-3-3-----5-5-5-5---------------------------|
E|--------------------------------3-3-3-3---------------------------|

   D                  C             G
e|------------------------------------------------------------------|
B|------------------------------------------------------------------|
G|-7-7-7-7-7-7-7-7----5-5-5-5-x-x-----------------------------------|
D|-7-7-7-7-7-7-7-7----5-5-5-5-x-x---5-5-5-5-------------------------|
A|-5-5-5-5-5-5-5-5----3-3-3-3-x-x---5-5-5-5-------------------------|
E|----------------------------------3-3-3-3-------------------------|

Do the first one again, then:

   D                  C            Am
e|---------------------------------0--------------------------------|
B|---------------------------------1--------------------------------|
G|-7-7-7-7-7-7-7-7----5-5-------x--2--------------------------------|
D|-7-7-7-7-7-7-7-7----5-5--5-5--x--2--------------------------------|
A|-5-5-5-5-5-5-5-5----3-3--2-2--x--0--------------------------------|
E|------------------------------------------------------------------|

Do Intro (1x)
Do Verse (1x)
Do Chorus (1x)

Interlude:

   G                G
e|-------------------------------------------------------------------|
B|-------------------------------------------------------------------|
G|-------------------------------------------------------------------|
D|-------2/3/2--------------2/3/2----------(2x)----------------------|
A|---2-3-------3--------2-3-------3----------------------------------|
E|-3-------------3----3-------------3--------------------------------|

(Another guitar is playing these chords)
   C                G
e|-------------------------------------------------------------------|
B|-------------------------------------------------------------------|
G|-5-5-5-5-5-5-5-5---------------------------------------------------|
D|-5-5-5-5-5-5-5-5--5-5-5-5-5-5-5-5----------------------------------|
A|-3-3-3-3-3-3-3-3--5-5-5-5-5-5-5-5----------------------------------|
E|------------------3-3-3-3-3-3-3-3----------------------------------|

'Yeah......' (just above chords)

Then, 'Oh..... I'm headin...'

     C                     Am
e|---0-0-0-0-0-0-0-0-x-x---0-0-0-0-0-0-0-0---------------------------|
B|---1-1-1-1-1-1-1-1-x-x---1-1-1-1-1-1-1-1---------------------------|
G|---0-0-0-0-0-0-0-0-x-x---2-2-2-2-2-2-2-2---(2x)--End on Am---------|
D|---2-2-2-2-2-2-2-2-x-x---2-2-2-2-2-2-2-2---------------------------|
A|---3-3-3-3-3-3-3-3-x-x---0-0-0-0-0-0-0-0---------------------------|
E|-------------------------------------------------------------------|

e|-------------------------------------------------------------------|
B|-------------------------------------------------------------------|
G|-------7....---5....-----------------------------------------------|
D|-3....-------------------------------------------------------------|
A|-------------------------------------------------------------------|
E|-------------------------------------------------------------------|

Do Chorus 1x
End on Am

-=Any questions, comments, email me at blink_pussycat@hotmail.com=-
===============================================================================
Suggest correction
Give kudos to tab author, rate the tab!
1 2 3 4 5
comments
print report bad tab
1 comment total.
0 reply
shelbykatya 10 wrote on February 5 2015, 08:40 am

cheers mate!

guest
You may want to rate the tab now too:
select rating
Wanna post a correction for this tab? Suggest correction