Oops, an error
Loading. Please wait.

Run Baby Run Bass Tab

28 views 1 this week
no commentswrite comment
1 2 3 4 5
3 more votes to show rating
add to favorites
launch autoscroll
font size
0
reset
guitar tuner
Autoscroll
slow
fast
+/-
esc
set tempo
stop
Help us to improve Ultimate-Guitar.com Take our survey!
×
Author
Difficulty
novice
[Intro]

G|-----------------|-----------------|-----------------|-----------------|
D|-----------------|-----------------|-----------------|-----------------|
A|-3-3-3-3-3-3-3-3-|-2-2-2-2-0-0-0-0-|-3-3-3-3-3-3-3-3-|-2-2-2-2-0-0-0-0-|
E|-----------------|-----------------|-----------------|-----------------|


[Verse 1]

G|-----------------|-----------------|-----------------|-----------------|
D|-----------------|-----------------|-----------------|-----------------|
A|-3-3-3-3-3-3-3-3-|-2-2-2-2-0-0-0-0-|-3-3-3-3-3-3-3-3-|-2-2-2-2-0-0-0-0-|
E|-----------------|-----------------|-----------------|-----------------|


G|-----------------|-----------------|-----------------|-----------------|
D|-----------------|-----------------|-----------------|-----------------|
A|-----------------|-----------------|-3-3-3-3-3-3-3-3-|-2-2-2-2-0-0-0-0-|
E|-1-1-1-1-1-1-1-1-|-1-1-1-1-1-1-1-1-|-----------------|-----------------|


G|-----------------|-----------------|-----------------|-----------------|
D|-----------------|-----------------|-----------------|-----------------|
A|-3-3-3-3-3-3-3-3-|-2-2-2-2-0-0-0-0-|-3-3-3-3-3-3-3-3-|-2-2-2-2-0-0-0-0-|
E|-----------------|-----------------|-----------------|-----------------|


G|-----------------|-----------------|-----------------|-----------------|-----------------|
D|-----------------|-----------------|-----------------|-----------------|-----------------|
A|-----------------|-----------------|-5-5-5-5-5-5-5-5-|-----------------|-----------------|
E|-1-1-1-1-1-1-1-1-|-1-1-1-1-1-1-1-1-|-----------------|-3-3-3-3-3-3-3-3-|-3-3-3-3-3-3-3-3-|


[Chorus]

G|-----------------|-----------------|-----------------|-----------------|
D|-----------------|-----------------|-----------------|-----------------|
A|-3-3-3-3-3-3-3-3-|-0-0-0-0-0-0-0-0-|-----------------|-----------------|
E|-----------------|-----------------|-1-1-1-1-0-0-0-0-|-1-1-1-1-3-3-3-3-|


G|-----------------|-----------------|-----------------|-----------------|-----------------|
D|-----------------|-----------------|-----------------|-----------------|-----------------|
A|-3-3-3-3-3-3-3-3-|-0-0-0-0-0-0-0-0-|-----------------|-5-5-5-5-5-5-5-5-|-----------------|
E|-----------------|-----------------|-1-1-1-1-0-0-0-0-|-----------------|-3-3-3-3-3-3-3-3-|


[Interlude]

G|-----------------|-----------------|
D|-----------------|-----------------|
A|-3-3-3-3-3-3-3-3-|-2-2-2-2-0-0-0-0-|
E|-----------------|-----------------|


[Verse 2]

G|-----------------|-----------------|-----------------|-----------------|
D|-----------------|-----------------|-----------------|-----------------|
A|-3-3-3-3-3-3-3-3-|-2-2-2-2-0-0-0-0-|-3-3-3-3-3-3-3-3-|-2-2-2-2-0-0-0-0-|
E|-----------------|-----------------|-----------------|-----------------|


G|-----------------|-----------------|-----------------|-----------------|
D|-----------------|-----------------|-----------------|-----------------|
A|-----------------|-----------------|-3-3-3-3-3-3-3-3-|-2-2-2-2-0-0-0-0-|
E|-1-1-1-1-1-1-1-1-|-1-1-1-1-1-1-1-1-|-----------------|-----------------|


G|-----------------|-----------------|-----------------|-----------------|
D|-----------------|-----------------|-----------------|-----------------|
A|-3-3-3-3-3-3-3-3-|-2-2-2-2-0-0-0-0-|-3-3-3-3-3-3-3-3-|-2-2-2-2-0-0-0-0-|
E|-----------------|-----------------|-----------------|-----------------|


G|-----------------|-----------------|-----------------|-----------------|-----------------|
D|-----------------|-----------------|-----------------|-----------------|-----------------|
A|-----------------|-----------------|-5-5-5-5-5-5-5-5-|-----------------|-----------------|
E|-1-1-1-1-1-1-1-1-|-1-1-1-1-1-1-1-1-|-----------------|-3-3-3-3-3-3-3-3-|-3-3-3-3-3-3-3-3-|


[Chorus]

G|-----------------|-----------------|-----------------|-----------------|
D|-----------------|-----------------|-----------------|-----------------|
A|-3-3-3-3-3-3-3-3-|-0-0-0-0-0-0-0-0-|-----------------|-----------------|
E|-----------------|-----------------|-1-1-1-1-0-0-0-0-|-1-1-1-1-3-3-3-3-|


G|-----------------|-----------------|-----------------|-----------------|-----------------|
D|-----------------|-----------------|-----------------|-----------------|-----------------|
A|-3-3-3-3-3-3-3-3-|-0-0-0-0-0-0-0-0-|-----------------|-5-5-5-5-5-5-5-5-|-----------------|
E|-----------------|-----------------|-1-1-1-1-0-0-0-0-|-----------------|-3-3-3-3-3-3-3-3-|


[Interlude]

G|-----------------|-----------------|-----------------|-----------------|
D|-----------------|-----------------|-----------------|-----------------|
A|-3-3-3-3-3-3-3-3-|-2-2-2-2-0-0-0-0-|-3-3-3-3-3-3-3-3-|-2-2-2-2-0-0-0-0-|
E|-----------------|-----------------|-----------------|-----------------|


[Bridge]

G|-----------------|-----------------|-----------------|-----------------|
D|-----------------|-----------------|-----------------|-----------------|
A|-5-5-5-5-5-5-5-5-|-5-5-5-5-5-5-5-5-|-3-3-3-3-3-3-3-3-|-----------------|
E|-----------------|-----------------|-----------------|-5-5-5-5-5-5-5-5-|


G|-----------------|-----------------|--------------------------|-----------------|
D|-----------------|-----------------|--------------------------|-----------------|
A|-5-5-5-5-5-5-5-5-|-5-5-5-5-5-5-5-5-|--------------------------|-----------------|
E|-----------------|-----------------|-0----1----3--3-3-3-3-3-3-|-3-3-3-3-3-3-3-3-|


G|-----------------|-----------------|-----------------|-----------------|
D|-----------------|-----------------|-----------------|-----------------|
A|-3-3-3-3-3-3-3-3-|-2-2-2-2-0-0-0-0-|-3-3-3-3-3-3-3-3-|-2-2-2-2-0-0-0-0-|
E|-----------------|-----------------|-----------------|-----------------|


G|-----------------|-----------------|-----------------|-----------------|----|
D|-----------------|-----------------|-----------------|-----------------|----|
A|-----------------|-----------------|-5-5-5-5-5-5-5-5-|-----------------|----|
E|-1-1-1-1-1-1-1-1-|-1-1-1-1-1-1-1-1-|-----------------|-3-3-3-3-3-3-3-3-|-3--|


[Verse 3]

G|----------------|----------------|----------------|----------------|----------------|
D|----------------|----------------|----------------|----------------|----------------|
A|----------------|----------------|----------------|----------------|----------------|
E|----------------|----------------|----------------|----------------|----------------|


G|----------------|-----------------|-----------------|-----------------|-----------------|
D|----------------|-----------------|-----------------|-----------------|-----------------|
A|----------------|-----------------|-5-5-5-5-5-5-5-5-|-----------------|-----------------|
E|----------------|-1-1-1-1-0-0-0-0-|-----------------|-3-3-3-3-3-3-3-3-|-3-3-3-3-3-3-3-3-|


[Chorus]

G|-----------------|-----------------|-----------------|-----------------|
D|-----------------|-----------------|-----------------|-----------------|
A|-3-3-3-3-3-3-3-3-|-0-0-0-0-0-0-0-0-|-----------------|-----------------|
E|-----------------|-----------------|-1-1-1-1-0-0-0-0-|-1-1-1-1-3-3-3-3-|


G|-----------------|-----------------|-----------------|-----------------|-----------------|
D|-----------------|-----------------|-----------------|-----------------|-----------------|
A|-3-3-3-3-3-3-3-3-|-0-0-0-0-0-0-0-0-|-----------------|-5-5-5-5-5-5-5-5-|-5-5-5-5-5-5-5-5-|
E|-----------------|-----------------|-1-1-1-1-0-0-0-0-|-----------------|-----------------|


[Outro]

G|-----------------|-----------------|-----------------|----|
D|-----------------|-----------------|-----------------|----|
A|-----------------|-----------------|-----------------|-3--|
E|-1-1-1-1-0-0-0-0-|-3-3-3-3-3-3-3-3-|-3-3-3-3-3-3-3-3-|----|



**************************

in regular sequence!

**************************
Suggest correction
Give kudos to tab author, rate the tab!
1 2 3 4 5
comments
print report bad tab
guest
You may want to rate the tab now too:
select rating
Wanna post a correction for this tab? Suggest correction