Oops, an error
Loading. Please wait.

Babes In Abyss Bass Tab

65 views 1 this week
no commentswrite comment
1 2 3 4 5
please rate
add to favorites
launch autoscroll
font size
0
reset
guitar tuner
Autoscroll
slow
fast
+/-
esc
set tempo
stop
Help us to improve Ultimate-Guitar.com Take our survey!
×
Author
Difficulty
intermediate
Deadsy
Babes In The Abyss
Phantasmagore
Standard 5 String Tuning

To save myself some time in tabbing this out, any section where there's an asterisk, 
that note freely.  The few times I use it, the notes are easy to hear so use your ears and 
along.

As with all my tabs, comments, suggestions, ratings, and constructive criticism are all 
 Thanks and enjoy! :D

Part A - 0:17 - (x4)
G|--------------|
D|--------------|
A|--------------|
E|--3---0-------|
B|----3---0-0---|

Part B - 0:28 - (x1)
G|-----------------------------------------------------------------------|
D|-----------------------------------------------------55555555-44444444-|
A|--2222222222222222-4444444444444444-3333333333333333-------------------|
E|-----------------------------------------------------------------------|
B|-----------------------------------------------------------------------|

G|------------------------------------------------------------------------|
D|--6666666666666666-5555555555555555-0000000000000000-4444444444444444---|
A|------------------------------------------------------------------------|
E|------------------------------------------------------------------------|
B|------------------------------------------------------------------------|

Part C - 0:51 - (x1)
G|--4--676------------4--676--------------|
D|---------7-2--454----------7------------|
A|------------------4----------2-0240-----|
E|------------------------------------2---|
B|----------------------------------------|
    *      *        *        *

Part A - 1:03 - (x4)

Part D - 1:14 - (x1)
G|--------------------------------------4-----------------3-----------------|
D|--6-----------------5-------------------555555555555555---444444444444444-|
A|----444444444444444---333333333333333-------------------------------------|
E|--------------------------------------------------------------------------|
B|--------------------------------------------------------------------------|

G|----------------------------------------------------------|
D|--3---6---6----6---6----6---6---2---5---5----5----5---5---|
A|----4---4---44---4---44---4---4---3---3---33---33---3---3-|
E|----------------------------------------------------------|
B|----------------------------------------------------------|

G|--4-----------------3-------------------|
D|----000000000000000---------------------|
A|----------------------444444444444444---|
E|----------------------------------------|
B|----------------------------------------|

Part C - 1:37 - (x1)

Part A - 1:48 - (x4)

Part A Variation - 1:59 - (x4)
G|------------------------|
D|------------------------|
A|------------------------|
E|--333-----000-----------|
B|------333-----0000000---|

Part E - 2:11 - (x4)
G|----------|
D|----------|
A|----------|
E|----4-0---|
B|--1-------|

Part F - 2:34 - (x1)
G|--------------------------------|
D|--------------------------------|
A|--------------------------------|
E|--------------------------------|
B|--11111111-11111111-1111111-0---|

Part A - 2:40 - (x4)

Part A Variation - 2:51 - (x4)

Ending - 3:02
G|------|
D|------|
A|--2---|
E|------|
B|------|
    *
Suggest correction
What's this?
You can suggest a correction to this tab. Community and Mods will review your correction and vote to approve or reject it.
comments
We did not receive enough feedback on this tab! Please rate:
print report bad tab
1 2 3 4 5
guest
You may want to rate the tab now too:
select rating
Please do not post tabs as comments. Select "correction" instead!