Oops, an error
Loading. Please wait.

Oh Howard You Crack Me Up Bass Tab

664 views 1 this week
no commentswrite comment
1 2 3 4 5
please rate
add to favorites
launch autoscroll
font size
0
reset
guitar tuner
Autoscroll
slow
fast
+/-
esc
set tempo
stop
Help us to improve Ultimate-Guitar.com Take our survey!
×
Author
Tuning
D A D G B E
Deaf Havana - Oh Howard You Crack Me Up

No Bass On Intro

Verse:

e|------------|
B|------------|
G|------------|
D|------5*----|
A|------5*----|
E|------5*----|


G|-----------------------------------------------------------------------|  x2
D|-----------------------------------------------------------------------|
A|-555555555555-7-8-7-8-7-8-7-8-7-8-7-8-7-8-7-8-7-8-7-8-7-8-7-8----7-----|
E|-----------------------------------------------------------------------|


G|---------------------------------------------| x2
D|---------------------------------------------|
A|---------------------------------------------|
E|--00000000000-----888888888888---------------|


G|------------------------------------------------------------|
D|------------------------------------------------------------|
A|------------------------------------------------------------|
E|---0-00--------0-00---------0-00----------0-00----00--------|

Chorus:

G|---------------------------------------------------------------| x2
D|---------------------------------------------------------------|
A|--------------------------------(10's Not 1 & 0)---------------|
D|-88888888----0000-----0000--101010101010101010--55555555-------|

Main Riff:

|
G|----------------------------------------------------------------------| x4
D|----------------------------------------------------------------------|
A|--------------------------4--4-----------------------------3----------|
D|--1p0-0-------0-3p0--1p0--------0-0---------0-3p0--5-0-3h5------------|

Verse 2:


G|-----------------------------------------------------------2------| x2
D|------------------------------------------------------------------|
A|--555555555555--3-1-3-1-3-1-3-1-3-1-3-1-3-1-3-1-3-1-3-1-3-1-3-1---|
D|------------------------------------------------------------------|


G|----------------------------------| x2
D|----------------------------------|
A|----------------------------------|
D|--000000000000----888888888888----|


G|------------------------------------------------------------|
D|------------------------------------------------------------|
A|------------------------------------------------------------|
D|---0-00--------0-00---------0-00----------0-00----00--------|



Chorus:


G|---------------------------------------------------------------| x2
D|---------------------------------------------------------------|
A|--------------------------------(10's Not 1 & 0)---------------|
D|-88888888----0000-----0000--101010101010101010--55555555-------|

Bridge:


G|---------------------------------------------------------------|
D|---------------------------------------------------------------|
A|---------------------------------------------------------------|
D|--8--8--8----8--8--8--8----8888--12-12-12----12-12-12-12----12-|



G|-----------------------------------------------------------|  x2
D|-----------------------------------------------------------|
A|-----------------------------------------------------------|
D|-10-10-10----10--10-10-10----10----5-5-5----5--5-5-5----5--|


G|-------------------------------------------------------------------------------------|
D|-------------------------------------------------------------------------------------|
A|-------------------------------------------------------------------------------------|
D|-5/8--10\5-5/8-10/5--888--888--8888--555--555--5555--888--888--8888-555-555-5555--0--|


G|------------|
D|------------|
A|------------|
D|----8~------|

Chorus:


G|---------------------------------------------------------------| x4
D|---------------------------------------------------------------|
A|--------------------------------(10's Not 1 & 0)---------------|
D|-88888888----0000-----0000--101010101010101010--55555555-------|



G|-------------|
D|-------------|
A|-------------|
D|--8--8~------|

Hammer

Anything Questions Or Anything Just E.Mail Me @ dropdeadhammer@hotmail.co.uk

************************************

| /   slide up
| \   slide down
| h   hammer-on
| p   pull-off
| ~   vibrato
| *   harmonic
| x   Mute note
| b   Bend
| pb  Pre-bend
| br  Bend release
| pbr Pre-bend release
| brb Bend release bend

************************************
Suggest correction
Give kudos to tab author, rate the tab!
1 2 3 4 5
comments
print report bad tab
guest
You may want to rate the tab now too:
select rating
Wanna post a correction for this tab? Suggest correction