Oops, an error
Loading. Please wait.

Trigger Tab

version 1
version 1

Whole song

145 views 6 this week
no commentswrite comment
1 2 3 4 5
1 last vote to show rating
add to favorites
launch autoscroll
font size
0
reset
how to read this tab
guitar tuner
Autoscroll
slow
fast
+/-
esc
set tempo
stop
Help us to improve Ultimate-Guitar.com Take our survey!
×
Author
Difficulty
Tuning
novice
D G C F A D
[Intro]

e|----------------------------------|--------------------------------------------|
B|----------------------------------|--------------------------------------------|
G|----------------------------------|--------------------------------------------|
D|-----0---0---0---0---0---0---0---0|-----0---0---0---0---0---0---0--------------| X1
A|-0h2---2--------------------------|-0h2---2--------------------------5---7---5-|
D|-----------4---4---5---5---0---0--|-----------4---4---5---5---5---5----5---5---|

Band Enters

Gtr 1
e|----------------------------------|--------------------------------------------|
B|----------------------------------|--------------------------------------------|
G|----------------------------------|--------------------------------------------|
D|-----0---0---0---0---0---0---0---0|-----0---0---0---0---0---0---0--------------| X2
A|-0h2---2--------------------------|-0h2---2--------------------------5---7---5-|
D|-----------4---4---5---5---0---0--|-----------4---4---5---5---5---5----5---5---|

(Listen for when to enter)
Gtr 2
e|--------------------------------------|----------------------------------------|
B|-----10--10-10-10--7~---5--5-5-5-3~---|-----10-10-10-10-7~---5~-3~-------------|
G|--------------------------------------|----------------------------------------| X1
D|--------------------------------------|----------------------------------------|
A|--------------------------------------|----------------------------------------|
D|--------------------------------------|----------------------------------------|


[Verse 1]

Vocals, Bass & Drums Only for 8 Bars, then:

e|-----------------------------------|-------------------------------------------|
B|-----------------------------------|-------------------------------------------|
G|-----------------------------------|-------------------------------------------|
D|-----0---0---0---0---0---0---0---0-|----0---0---0---0---0---0---0---0---0------| X2
A|-0h2---2---------------------------|0h2---2------------------------------------|
D|-----------4---4---5---5---0---0---|----------4---4---5---5---5---5---5---5----|


[Chorus 1]

Gtr 1
e|----2-----------0-----------4-----------5-------------------------------------|
B|----3-----------3-----------4-----------5-------------------------------------|
G|----2--(x8)-----2--(x8)-----7--(x8)-----7--(x8)-------------------------------| X2
D|----0-----------0-----------6-----------7-------------------------------------|
A|----0-----------2-----------4-----------5-------------------------------------|
D|----0-----------0-----------4-----------5-------------------------------------|

[Post-Chorus]

(Listen for when to enter)

e|--------------------|----------------------------------------------------------|
B|-----10-10-10-10-7~-|--5-5-5-5-3~----------------------------------------------|
G|--------------------|----------------------------------------------------------| X1
D|--------------------|----------------------------------------------------------|
A|--------------------|----------------------------------------------------------|
D|--------------------|----------------------------------------------------------|


[Verse 2]
 
e|-----------------------------------|-------------------------------------------|
B|-----------------------------------|-------------------------------------------|
G|-----------------------------------|-------------------------------------------|
D|-----0---0---0---0---0---0---0---0-|----0---0---0---0---0---0---0---0---0------| X2
A|-0h2---2---------------------------|0h2---2------------------------------------|
D|-----------4---4---5---5---0---0---|----------4---4---5---5---5---5---5---5----|


[Chorus 2]

e|----2-----------0-----------4-----------5-------------------------------------|
B|----3-----------3-----------7-----------5-------------------------------------|
G|----2--(x8)-----2--(x8)-----6--(x8)-----7--(x8)-------------------------------| X4
D|----0-----------0-----------4-----------7-------------------------------------|
A|----0-----------2-----------4-----------5-------------------------------------|
D|----0-----------0-----------4-----------5-------------------------------------|

Breakdown:

e|----0-----------0-----------0-----------0-------------------------------------|
B|----3-----------3-----------3-----------2-------------------------------------|
G|----2--(x8)-----0--(x8)-----2--(x8)-----2--(x8)-------------------------------| X2
D|----0-----------0-----------0-----------2-------------------------------------|
A|----2-----------5-----------0-----------0-------------------------------------|
D|----0-----------5-----------0-----------0-------------------------------------|


e|----0-----------0-----------0-----------0-----------0~--------------------------|
B|----0-----------0-----------0-----------0-----------0~--------------------------|
G|----0--(x8)-----0--(x8)-----0--(x8)-----0--(x8)-----0~--------------------------| X2
D|----2-----------5-----------9-----------7-----------0~--------------------------|
A|----2-----------5-----------9-----------7-----------0~--------------------------|
D|----2-----------5-----------9-----------7-----------0~--------------------------|

Pre-Final Chorus
(Listen for when to enter)

e|-----------------|-------------------------------------------------------------|
B|----10-7-5-3-----|---x-x-10-7----------------------------------------------------|
G|-------------2---|-------------------------------------------------------------| X1
D|-----------------|-------------------------------------------------------------|
A|-----------------|-------------------------------------------------------------|
D|-----------------|-------------------------------------------------------------|


Drum Fill


[Final Chorus]

e|----2-----------0-----------4-----------5-------------------------------------|
B|----3-----------3-----------7-----------5-------------------------------------|
G|----2--(x8)-----2--(x8)-----6--(x8)-----7--(x8)-------------------------------| X4
D|----0-----------0-----------4-----------7-------------------------------------|
A|----0-----------2-----------4-----------5-------------------------------------|
D|----0-----------0-----------4-----------5-------------------------------------|


[Ending]

e|--------5------5--------5-------5~--------------------------------------------|
B|------7---------------7---------8~--------------------------------------------|
G|--------------7-----------------7~--------------------------------------------| X1
D|------------------------------------------------------------------------------|
A|------------------------------------------------------------------------------|
D|------------------------------------------------------------------------------|

***********************************

| h   Hammer-on
| x   Dead note
| ~   Let it ring

***********************************
Suggest correction
Give kudos to tab author, rate the tab!
1 2 3 4 5
comments
print report bad tab
guest
You may want to rate the tab now too:
select rating
Wanna post a correction for this tab? Suggest correction