Oops, an error
Loading. Please wait.

Come Back Tab

version 1
version 1

Whole song

  • First ever full tab of this song, like played live by Kerry McCoy.
346 views 12 this week
no commentswrite comment
1 2 3 4 5
1 last vote to show rating
add to favorites
launch autoscroll
font size
0
reset
how to read this tab
guitar tuner
Autoscroll
slow
fast
+/-
esc
set tempo
stop
Help us to improve Ultimate-Guitar.com Take our survey!
×
Author
Difficulty
Tuning
intermediate
D A D G B E
About this tab version
First ever full tab of this song, like played live by Kerry McCoy. Was this info helpful? Yes No
CLEAN PART 1

e|---------------------|---------------------|---------------------|---------------------|
B|---------------------|---------------------|---------------------|---------------------|
G|-9-------------------|------10---10---9----|-9-------------------|------10---10---9----|
D|-10------------------|------10---10---10---|-10------------------|------10---10---10---|
A|-0-------------------|------0----0----0----|-0-------------------|------0----0----0----|
D|---------------------|---------------------|---------------------|---------------------|

e|---------------------|---------------------|---------------------|---------------------|
B|---------------------|---------------------|---------------------|---------------------|
G|-9----7----7---------|------9----9----7----|-7-------------------|-9----9----10---9----|
D|-10---9----9---------|------10---10---9----|-9-------------------|-10---9----9----10---|
A|-0----0----0---------|------0----0----0----|-0-------------------|-0----0----0----0----|
D|---------------------|---------------------|---------------------|---------------------|

e|---------------------|---------------------|---------------------|---------------------|
B|------13-------------|-13---13---12---12---|-13---13-------------|-13---13---12---12---|
G|---------------------|-9----9----10---10---|-9----9--------------|-9----9----10---10---|
D|---------------------|-10---10---9----9----|-10---10-------------|-10---10---9----9----|
A|---------------------|-0----0----0----0----|-0----0--------------|-0----0----0----0----|
D|---------------------|---------------------|---------------------|---------------------|

e|---------------------|---------------------|---------------------|---------------------|
B|------8--------------|------10---10---6----|-6-------------------|-5-------------------|
G|------7--------------|------7----7----7----|-7-------------------|-7-------------------|
D|------9--------------|------9----9----9----|-9-------------------|-9-------------------|
A|------0--------------|------0----0----0----|-0-------------------|-0-------------------|
D|---------------------|---------------------|---------------------|---------------------|

MEATY PART 1

e||--------------------|-----------------|   |---------------------|---------------------|   |
B||--------------------|-----------------|   |---------0-----------|---------0-----------|   |
G||-2------0-----------|-5------0--------|   |-----5-----5---5-----|-----5-----5---5-----|   |
D||-2-x42--0-x6--------|-3-x42--0-x6-----|x2 |---7---7-----7----x4-|---7---7-----7----x4-|x2 |
A||-0------0-----------|-0------0--------|   |-0-------------------|-8-------------------|   |
D||--------------------|-----------------|   |-let the notes ring--|---------------------|   |

LEAD PART 1

e|------------------|   |----------------|-----------------------|---------------------|   |
B|------------------|   |----------------|-----------------------|---------------------|   |
G|-9------10--------|   |-7-----4--------|-7-----4-----9----10---|-10----9----7--------|   |
D|-x-x18--x--x6-----|x2 |-x-x6--x-x18----|-x-x6--x-x6--x-x6-x--x6|-x-x12-x-x6-x-x6-----|x2 |
A|-7------8---------|   |-5-----2--------|-5-----2-----7----8----|-8-----7----5--------|   |
D|------------------|   |----------------|-----------------------|---------------------|   |

e|-----------------------------------------|-----------------------------------------------------------------|
B|-----------------------------------------|-----------------------------------------------------------------|
G|-5----4----5----7----5----7----9----10---|-10----9----7----10----9----12---5---4---5---7---5---7---9---10--|
D|-x-x6-x-x6-x-x6-x-x6-x-x6-x-x6-x-x6-x-x6-|-x-x12-x-x6-x-x6-x-x12-x-x6---x6--x6--x6--x6--x6--x6--x6--x6---x6|
A|-3----2----3----5----3----5----7----8----|-8-----7----5----8-----7----10---3---2---3---5---3---5---7---8---|
D|-----------------------------------------|-----------------------------------------------------------------|

LEAD PART 2 (lower)

e|---------------------------------|   |---------------------------------------------------|
B|---------------------------------|   |---------------------------------------------------|
G|---------------------------------|   |---------------------------------------------------|
D|-10----9----10----9----7----9----|x3 |-10----9----10---14----12----10---9----7-----------|
A|-x-x12-x-x6-x-x12-x-x6-x-x6-x-x6-|   |-x-x12-x-x6-x-x6-x-x6--x-x6--x-x6-x-x6-x (let ring)|
D|-10----9----10----9----7----9----|   |-10----9----10---14----12----10---9----7-----------|

MEATY PART 2

All the chugging is done on open A with occasional accents on perfect fifth being E (2nd fret, 4th string).

Little palm-muted run at the end looks like:

e|---------------------|
B|---------------------|
G|---------------------|
D|-5-2-0-2-3-2-0-2-----|
A|-5-2-0-2-3-2-0-2-----|
D|-5-2-0-2-3-2-0-2-----|

First lead part goes like this:

e|---------------------|
B|---------------------|
G|---------------------|
D|-10~--9~---6~--5~----|
A|---------------------|
D|---------------------|

Second (lower) lead part:

e|-----------------------------------------|-----------------------------------------------------------|   |
B|-----------------------------------------|-----------------------------------------------------------|   |
G|-----------------------------------------|-----------------------------------------------------------|   |
D|-10---9/10/9----6----9----7\-------------|-10---9/10/9----13---14----7\-------------5-2-0-2-3-2-0-2--|x2 |
A|-x----x-x--x----x----x----x---(chug on A)|-x----x-x--x----x----x-----x--(chug on A)-5-2-0-2-3-2-0-2--|   |
D|-10---9/10/9----6----9----7\-------------|-10---9/10/9----13---14----7\-------------5-2-0-2-3-2-0-2--|   |

LEAD PART 3

e|---------------------------------------------|   |-----------------------------------------------------|   |
B|---------------------------------------------|   |-----------------------------------------------------|   |
G|-9----10--12----10---12---7---10---9---7-----|   |-9---7---12--10--9---9/10/9/7/5--9/10/9/7/5-7--5--4--|   |
D|--x12--x4---x12---x4---x4--x8---x4--x4---x12-|x2 |--x12-x4--x8-x4--x4--------------------------x4-x8-x8|x2 |
A|-7----8---10----8----10---5---8----7---5-----|   |-7---5---10--8---7---7/8-/7/5/3--7/8-/7/5/3-5--3--2--|   |
D|---------------------------------------------|   |-----------------------------------------------------|   |

This part ends on a G# power chord:

e|------|
B|------|
G|------|
D|-6~---|
A|-x----|
D|-6~---|

CLEAN PART 2

e|-0------------|-0-------------------0-------------|   |-0--0--0--0--------0--------------------------------|
B|-0------------|-0-----------------3---3---0-------|   |-0--0--0--0------0---------7--------8-------10----12|
G|-4------------|-4-------------4h5-------5---5-----|   |-4--4--4--4--------------7--------9------------12-x-|
D|-5-(let ring)-|-5-(let ring)----------------------|x2 |-5--5--5--5--5/7-----7/9-----9/10-----10/12-------9-|
A|-3------------|-3---------------------------------|   |-3--3--2--2-----------------------------------------|
D|--------------|-----------------------------------|   |----------------------------------------------------|

e|-0------------|-0-------------------0-------------|   |-0--0-------------------|
B|-0------------|-0-----------------3---3---0-------|   |-0--0--0----------------|
G|-4------------|-4-------------4h5-------5---5-----|   |-4--4--5----------------|
D|-5-(let ring)-|-5-(let ring)----------------------|x2 |-5--5--5-(let ring)-----|
A|-3------------|-3---------------------------------|   |-3--3--3----------------|
D|--------------|-----------------------------------|   |------------------------|

CLEAN PART 3 (LEAD)

This part sounds amazing if played with a slide:

e|------------------------------------------------------|   |------------------------------------------------|
B|------------------------------------------------------|   |------------------------------------------------|
G|-5~--9~--12~-10~-9~-9/10/9---5~-----5~-------5~-------|   |-5~-9~-12~10~9~-9/10/9-5~-9/10-10/12-12/14-14/16|
D|--------------------------------5/7----5-5/7----5-5/7-|x3 |------------------------------------------------|
A|------------------------------------------------------|   |------------------------------------------------|
D|------------------------------------------------------|   |------------------------------------------------|

e|-------------------------|   |----------------------------------------------|
B|-------------------------|   |----------------------------------------------|
G|-17-16-14----------------|   |----------------------------------------------|
D|----------17-15-14-------|x8 |----------------15-15-17-17-15-15-------------|
A|-------------------17-15-|   |-15-17-17-19-19-------------------19-19-17-17~|
D|-------------------------|   |----------------------------------------------|

e|----------------------------------------------|
B|----------------------------------------------|
G|----------------------------------15-15-16-16~|
D|----------------15-15-17-17-18-18|------------|
A|-15-17-17-18-18-------------------------------|
D|----------------------------------------------|

e|------------------------------------------------------|   |-----------------------------------------------|
B|------------------------------------------------------|   |-----------------------------------------------|
G|-5~--9~--12~-10~-9~-9/10/9---5~-----5~-------5~-------|   |-5~--9~--12~-10~-9~-9/10/9---5~-5/7-5~-9/7/5~--|
D|--------------------------------5/7----5-5/7----5-5/7-|x3 |-----------------------------------------------|
A|------------------------------------------------------|   |-----------------------------------------------|
D|------------------------------------------------------|   |-----------------------------------------------|

That part wraps it up, thank you for checking this out!

Special thanks to Quique Toloza (I've checked his cover on YouTube in case my ears were not good enough).


************************************


| /  slide up
| \  slide down
| h  hammer-on
| p  pull-off
| ~  vibrato
| +  harmonic
| x  Mute note

************************************
Suggest correction
Give kudos to tab author, rate the tab!
1 2 3 4 5
comments
print report bad tab
guest
You may want to rate the tab now too:
select rating
Wanna post a correction for this tab? Suggest correction