Oops, an error
Loading. Please wait.

Database Corrupted Tab

version 1
version 1

Whole song

458 views 1 this week
no commentswrite comment
1 2 3 4 5
please rate
add to favorites
launch autoscroll
font size
0
reset
how to read this tab
guitar tuner
Tab Pro tools
  • play this tab
  • loop segment
  • change instrument
  • show fretboard
  • metronome
×
Best way to learn
"Database Corrupted"
Autoscroll
slow
fast
+/-
esc
set tempo
stop
Contributor
Difficulty
novice
-------------------------------------------------------------------------------
                             Database Corrupted - Dealership
-------------------------------------------------------------------------------
Tabbed by: Rikachu
Email: Topgb@msn.com

Tuning: Standard (Everything with fairly light distortion unless otherwise noted.

First tab please enjoy =] I really like this song first heard on Rock Band 2.
Many people wanted to know how to play this so I decided to write a tab on it.
Please send/email me mistakes and I'll correct it, unless this tab is horrendously wrong.
I want to tab other Dealership songs too if I have time.

INTRO: (2X)                       THEN PLAY: (1X)
e|------------------------------|--------------------------------------------|
B|--3-2--3-5~---3-2--3----------|--3-2--3-5~---3--2--------------------------|
G|---------------------4--------|--------------------------------------------|
D|------------------------------|--------------------------------------------|
A|------------------------------|--------------------------------------------|
E|------------------------------|--------------------------------------------|

VERSE1: (2X)
e|---------------------------------------------------------------------------|
B|---------------------------------------------------------------------------|
G|---------------------------------------------------------------------------|
D|--4-4-4-4-4-4-4-4-4-4-4-4-4-4-4-4---4-4-4-4-4-4-4-4-4-4-4-4-4-4-4-4--------|
A|--5-5-5-5-5-5-5-5-5-5-5-5-5-5-5-5---2-2-2-2-2-2-2-2-2-2-2-2-2-2-2-2--------|
E|---------------------------------------------------------------------------|
(1stTime)  If you really wanted to go,       There were other ways to say so.

(2ndTime)  If you really wanted to go,       There were other ways to say so.

e|---------------------------------------------------------------------------|
B|---------------------------------------------------------------------------|
G|---------------------------------------------------------------------------|
D|--5-5-5-5-5-5-5-5-5-5-5-5-5-5-5-5---2-2-2-2-2-2-2-2-2-2-2-2-2-2-2-2--------|
A|--3-3-3-3-3-3-3-3-3-3-3-3-3-3-3-3---3-3-3-3-3-3-3-3-3-3-3-3-3-3-3-3--------|
E|---------------------------------------------------------------------------|
(1stTime)  Write me notes of your intent,    tell me so and I'd relent.

(2ndTime)  But none would quite compare,     to the way you left me here.


Chorus: (2X)
e|---------------------------------------------------------------------------|
B|---------------------------------------------------------------------------|
G|---------------------------------------------------------------------------|
D|--4-4-4-4-4-4-4-4---------------------4-4-4-4-4-4-4-4-4-4-4-4-4-4-4-4------|
A|--5-5-5-5-5-5-5-5---2-2-2-2-2-2-2-2---2-2-2-2-2-2-2-2-2-2-2-2-2-2-2-2------|
E|--------------------3-3-3-3-3-3-3-3----------------------------------------|
           Youuuuu    wannnt ittttttt         Sooooooo takeeee itttttt

           Don'ttt    leavee meeeeeee         forrrrr- sakkk- ennnnnn


e|------------------------------------------------------------------------------------|
B|------------------------------------------------------------------------------------|
G|------------------------------------------------------------------------------------|
D|--6-6-6-6-6-6-6-6-6-6-6-6-6-6-6-6---9--9--9--9--9--9--9--9--9--9--9--9--9--9--9--9--|
A|--7-7-7-7-7-7-7-7-7-7-7-7-7-7-7-7---10-10-10-10-10-10-10-10-10-10-10-10-10-10-10-10-|
E|------------------------------------------------------------------------------------|
            Don'ttt breakkk itttttt               Regretttttt  ittttttttttt->

            Forrrr- gotttt- ennnnnn               neeeeeeeeee  glectedddddd->


VERSE2: (2X)[Same notes but different lyrics]
 e|-----------------------------------------------------------------------------|
B|------------------------------------------------------------------------------|
G|------------------------------------------------------------------------------|
D|--4-4-4-4-4-4-4-4-4-4-4-4-4-4-4-4---4-4-4-4-4-4-4-4-4-4-4-4-4-4-4-4-----------|
A|--5-5-5-5-5-5-5-5-5-5-5-5-5-5-5-5---2-2-2-2-2-2-2-2-2-2-2-2-2-2-2-2-----------|
E|------------------------------------------------------------------------------|
           If you really wanted to go,       why was I the last one to know

           If you really wanted to go,       there were other ways to say so

e|---------------------------------------------------------------------------|
B|---------------------------------------------------------------------------|
G|---------------------------------------------------------------------------|
D|--5-5-5-5-5-5-5-5-5-5-5-5-5-5-5-5---2-2-2-2-2-2-2-2-2-2-2-2-2-2-2-2--------|
A|--3-3-3-3-3-3-3-3-3-3-3-3-3-3-3-3---3-3-3-3-3-3-3-3-3-3-3-3-3-3-3-3--------|
E|---------------------------------------------------------------------------|
           Master faces of our friends,    with fake concerned, exuding grins

           But none would quite compare,   to the way you left me here


CHORUS2: (2X) Repeat chorus again but with way more distortion.
e|---------------------------------------------------------------------------|
B|---------------------------------------------------------------------------|
G|---------------------------------------------------------------------------|
D|--4-4-4-4-4-4-4-4---------------------4-4-4-4-4-4-4-4-4-4-4-4-4-4-4-4------|
A|--5-5-5-5-5-5-5-5---2-2-2-2-2-2-2-2---2-2-2-2-2-2-2-2-2-2-2-2-2-2-2-2------|
E|--------------------3-3-3-3-3-3-3-3----------------------------------------|
           Youuuuu    wannnt ittttttt         Sooooooo takeeee itttttt

           Don'ttt    leavee meeeeeee         forrrrr- sakkk- ennnnnn


e|------------------------------------------------------------------------------------|
B|------------------------------------------------------------------------------------|
G|------------------------------------------------------------------------------------|
D|--6-6-6-6-6-6-6-6-6-6-6-6-6-6-6-6---9--9--9--9--9--9--9--9--9--9--9--9--9--9--9--9--|
A|--7-7-7-7-7-7-7-7-7-7-7-7-7-7-7-7---10-10-10-10-10-10-10-10-10-10-10-10-10-10-10-10-|
E|------------------------------------------------------------------------------------|
            Don'ttt breakkk itttttt               Regretttttt  ittttttttttt->

            Forrrr- gotttt- ennnnnn               neeeeeeeeee  glectedddddd->

JUSTGUITAR1: (1X) Just repeat any of the verses again, but with no vocals.
e|---------------------------------------------------------------------------|
B|---------------------------------------------------------------------------|
G|---------------------------------------------------------------------------|
D|--4-4-4-4-4-4-4-4-4-4-4-4-4-4-4-4---4-4-4-4-4-4-4-4-4-4-4-4-4-4-4-4--------|
A|--5-5-5-5-5-5-5-5-5-5-5-5-5-5-5-5---2-2-2-2-2-2-2-2-2-2-2-2-2-2-2-2--------|
E|---------------------------------------------------------------------------|

e|---------------------------------------------------------------------------|
B|---------------------------------------------------------------------------|
G|---------------------------------------------------------------------------|
D|--5-5-5-5-5-5-5-5-5-5-5-5-5-5-5-5---2-2-2-2-2-2-2-2-2-2-2-2-2-2-2-2--------|
A|--3-3-3-3-3-3-3-3-3-3-3-3-3-3-3-3---3-3-3-3-3-3-3-3-3-3-3-3-3-3-3-3--------|
E|---------------------------------------------------------------------------|

BRIDGE1: (3x) Distortion throughout bridge unless noted. [Slide up when you repeat]
                                        ==Light Distortion Below==
e|--------------------------------------------------------------------------|
B|--------------------------------------------------------------------------|
G|--9-9-9-9-9-9-9-9\--7-7-7-7-7-7-7-7---7-7-7-6-6-6-7-7-7-6-6-7-7/----------|
D|--x-x-x-x-x-x-x-x\--x-x-x-x-x-x-x-x---x-x-x-x-x-x-x-x-x-x-x-x-x/----------|
A|--7-7-7-7-7-7-7-7\--5-5-5-5-5-5-5-5---5-5-5-4-4-4-5-5-5-4-4-5-5/----------|
E|--------------------------------------------------------------------------|
                                          And I'm at a loss so please explain


     Why yesterday you were laughing and we were holding hands out in therain


         Without an umbrella soaking and you kept saying "baby, such a shame"

JUSTGUITAR2: (1X) Similar to JUSTGUITAR1, but with more kick in some of the chords.
(You can play the power chords even in the verse if you really want to, but I feel like 
needed here.)

e|---------------------------------------------------------------------------|
B|---------------------------------------------------------------------------|
G|------------------------------------4-4-4-4-4-4-4-4-4-4-4-4-4-4-4-4--------|
D|--4-4-4-4-4-4-4-4-4-4-4-4-4-4-4-4---4-4-4-4-4-4-4-4-4-4-4-4-4-4-4-4--------|
A|--5-5-5-5-5-5-5-5-5-5-5-5-5-5-5-5---2-2-2-2-2-2-2-2-2-2-2-2-2-2-2-2--------|
E|---------------------------------------------------------------------------|

e|---------------------------------------------------------------------------|
B|---------------------------------------------------------------------------|
G|--5-5-5-5-5-5-5-5-5-5-5-5-5-5-5-5------------------------------------------|
D|--5-5-5-5-5-5-5-5-5-5-5-5-5-5-5-5---2-2-2-2-2-2-2-2-2-2-2-2-2-2-2-2--------|
A|--3-3-3-3-3-3-3-3-3-3-3-3-3-3-3-3---3-3-3-3-3-3-3-3-3-3-3-3-3-3-3-3--------|
E|---------------------------------------------------------------------------|


VERSE3: (1X) Same as the second part of any verse.
e|---------------------------------------------------------------------------|
B|---------------------------------------------------------------------------|
G|---------------------------------------------------------------------------|
D|--4-4-4-4-4-4-4-4-4-4-4-4-4-4-4-4---4-4-4-4-4-4-4-4-4-4-4-4-4-4-4-4--------|
A|--5-5-5-5-5-5-5-5-5-5-5-5-5-5-5-5---2-2-2-2-2-2-2-2-2-2-2-2-2-2-2-2--------|
E|---------------------------------------------------------------------------|
           If you really wanted to go,       There were other ways to say so.

e|---------------------------------------------------------------------------|
B|---------------------------------------------------------------------------|
G|---------------------------------------------------------------------------|
D|--5-5-5-5-5-5-5-5-5-5-5-5-5-5-5-5---2-2-2-2-2-2-2-2-2-2-2-2-2-2-2-2--------|
A|--3-3-3-3-3-3-3-3-3-3-3-3-3-3-3-3---3-3-3-3-3-3-3-3-3-3-3-3-3-3-3-3--------|
E|---------------------------------------------------------------------------|
           But none would quite compare,     to the way you left me here.

BRIDGE2: (5x) Distortion throughout entire bridge. [Slide up again when you repeat]

e|--------------------------------------------------------------------------|
B|--------------------------------------------------------------------------|
G|--9-9-9-9-9-9-9-9\--7-7-7-7-7-7-7-7---7-7-7-6-6-6-7-7-7-6-6-7-7/----------|
D|--x-x-x-x-x-x-x-x\--x-x-x-x-x-x-x-x---x-x-x-x-x-x-x-x-x-x-x-x-x/----------|
A|--7-7-7-7-7-7-7-7\--5-5-5-5-5-5-5-5---5-5-5-4-4-4-5-5-5-4-4-5-5/----------|
E|--------------------------------------------------------------------------|
                                          And I'm at a loss so please explain


    Why yesterday you were laughing and we were holding hands out in the rain


        Without an umbrella soaking and when I smiled at you, you looked away


       Pretending to see someone you knew, pull that trick again and I became


               Your personal laughing stock and you said "baby, such a shame"

JUSTGUITAR3: (1X)[Same as JUSTGUITAR2]
e|---------------------------------------------------------------------------|
B|---------------------------------------------------------------------------|
G|------------------------------------4-4-4-4-4-4-4-4-4-4-4-4-4-4-4-4--------|
D|--4-4-4-4-4-4-4-4-4-4-4-4-4-4-4-4---4-4-4-4-4-4-4-4-4-4-4-4-4-4-4-4--------|
A|--5-5-5-5-5-5-5-5-5-5-5-5-5-5-5-5---2-2-2-2-2-2-2-2-2-2-2-2-2-2-2-2--------|
E|---------------------------------------------------------------------------|

e|---------------------------------------------------------------------------|
B|---------------------------------------------------------------------------|
G|--5-5-5-5-5-5-5-5-5-5-5-5-5-5-5-5------------------------------------------|
D|--5-5-5-5-5-5-5-5-5-5-5-5-5-5-5-5---2-2-2-2-2-2-2-2-2-2-2-2-2-2-2-2--------|
A|--3-3-3-3-3-3-3-3-3-3-3-3-3-3-3-3---3-3-3-3-3-3-3-3-3-3-3-3-3-3-3-3--------|
E|---------------------------------------------------------------------------|


ENDING: (1X)
e|------------------------------|
B|--3----2----3----5~-----------|
G|------------------------------|
D|------------------------------|
A|------------------------------|
E|------------------------------|

| /  slide up
| \  slide down
| h  hammer-on
| p  pull-off
| ~  vibrato
| +  harmonic
| x  Mute note
===============================================================================
comments
We did not receive enough feedback on this tab! Please rate:
print report bad tab
1 2 3 4 5
I want to post or [tab]
guest
You may want to rate the tab now too:
select rating
Please do not post tabs as comments. Select "correction" instead!