Oops, an error
Loading. Please wait.

D Half Moon tab

by DEAN
115 views 9 this week
no commentswrite comment
1 2 3 4 5
3 more votes to show rating
add to favorites
×
Save as Personal and add changes to this tab that will be seen only by you. Learn more ›
×
You can save this tab as Personal to edit and correct it or add notes. All changes will be seen only by you. Learn more »
launch autoscroll
font size
0
reset
how to read this tab
guitar tuner
edit
Autoscroll
slow
fast
+/-
esc
set tempo
stop
[Intro]
e|---------------------------------------------------------------------------|
B|--------0--2---2--0-----0--------------------------------------------------|
G|--2--2---------1-----2-----------1-------------------2---------------------|
D|--0------------0-----------------2---2---------2--4------------------------|
A|--2------------------------------0------4---4------------------------------|
E|---------------0-----------------------------------------------------------|

e|----------------------------------------x----------------------------------|
B|--------0--2---2--0-----0---------------x---------------0------------------|
G|--2--2---------1-----2-----------1---2--x---2-------2----------------------|
D|--0------------0-----------------2------x---2----4-------------------------|
A|--2------------------------------0------x----------------------------------|
E|---------------0------------------------x---2------------------------------|

[Verse]
e|-------x------------------------x------------------------------------------|
B|--2----x--0---------0------2----x--0---------------------------------------|
G|--2----x--1------2---------1----x--2-------2-------------------------------|
D|--0----x--0---4------------2----x--2----4----------------------------------|
A|--2----x-------------------0----x------------------------------------------|
E|-------x--0---------------------x--2---------------------------------------|

e|---------x--------------x---x------------x---------------------------------|
B|-2-0-----x-----2-0------x---x--2--(2)----x----0----------0-----------------|
G|-2-------x-2---1--------x-2-x--1--(1)----x----2-------2--------------------|
D|-0----4--x-----0----4---x---x--2--(2)----x----2----4-----------------------|
A|-2-------x--------------x---x--0--(0)----x---------------------------------|
E|---------x-----0--------x---x------------x-2-------------------------------|

e|-------x------------------------x------------------------------------------|
B|--2----x--0---------0------2----x--0-------0-------------------------------|
G|--2----x--1------2---------1----x--2----2----------------------------------|
D|--0----x--0---4------------2----x--2---------------------------------------|
A|--2----x-------------------0----x------------------------------------------|
E|-------x--0---------------------x--2---------------------------------------|

e|-0---------x----0----------x-----------------------x-----------------------|
B|-2--3--2---x-0--0---3--2---x--0----------------2---x---0-----------0-------|
G|-2---------x----1----------x-----1----------1------x---2-----2-------------|
D|-----------x---------------x-------------2---------x---2--------2----------|
A|-2---------x---------------x----------0------------x-----------------------|
E|-----------x----0----------x-----------------------x---2-------------------|

[Pre-Chorus]
e|----------------------------x---------------------x------------------------|
B|----2---2---2----2----------x---------------------x-------------------0----|
G|------4---4---4-----2-------x--4---1--------------x--0--1-------2----------|
D|------------------------4---x------2-----2--------x---------4------2-------|
A|-2--------------------------x------1----------4---x------------------------|
E|-----------------0----------x---------------------x-------------2----------|


e|----------------------------x------------------------------x---------------|
B|----2---2---2-------2-------x--------2---2---2-------2-----x---------------|
G|------4---4---4--------2----x--4-------4---4---4-------2---x---------------|
D|----------------------------x------------------------------x---4-----------|
A|-2--------------------------x------0-----------------------x---------------|
E|-----------------0----------x---------------------2--------x---------------|

e|------------------------------------------x--------------------------------|
B|--------------------------------------2---x--2-----2---1--2----------------|
G|----------2-------2--1-------------1------x--1-----------------------------|
D|-------0----------------4-------2---------x--2-----------------------------|
A|--2--------------------------0------------x--0-----------------------------|
E|--------------0---------------------------x--------------------------------|

[Chorus]
e|--0--2--0--2---x-----------------------------x---------------------x-------|
B|--0------------x--0-----0----0------0--0-2---x-----0-2---3---2-0---x-------|
G|--2------------x--1-----1--2---2----1--------x-----------2---------x--2----|
D|---------------x--0-----0-----------2--------x-----------2---------x-----4-|
A|--2------------x--------x-----------0--------x--0------------------x-------|
E|---------------x--0-----x--------------------x-----------2---------x-------|

e|-----------x--------------------x------0---2-0-2--x------------------------|
B|--------0--x-----0-2---3---2-0--x------2----------x--2---------------------|
G|------2----x-----------1--------x--2---1----------x--2---2---1--2----------|
D|----0------x-----------0--------x-----------------x------------------------|
A|--2--------x--2-----------------x------0----------x------------------------|
E|-----------x-----------0--------x-----------------x--2---------------------|

e|--2---2--x-----------------------------x-----0--2---3---2-0--x------0------|
B|--0---0--x--0---0-----0------0----0-2--x------------2--------x---2---------|
G|--2---2--x--1---1---2---2----2---------x------------2--------x-------------|
D|---------x--0---0------------1---------x---------------------x-------------|
A|--2------x------x------------0---------x--0------------------x-------------|
E|---------x--0---x----------------------x------------2--------x-------------|

e|-----------0--x-----x--0-------0--2----------------------------------------|
B|--------2-----x--2--x--0---2----------2------------------------------------|
G|-----2--------x-----x--1--------------1------------------------------------|
D|--------------x-----x-----------------2------------------------------------|
A|--2-----------x-----x-----------------0------------------------------------|
E|--------------x-----x--0---------------------------------------------------|

[Verse] x2
e|-------x------------------------x------------------------------------------|
B|--2----x--0---------0------2----x--0---------------------------------------|
G|--2----x--1------2---------1----x--2-------2-------------------------------|
D|--0----x--0---4------------2----x--2----4----------------------------------|
A|--2----x-------------------0----x------------------------------------------|
E|-------x--0---------------------x--2---------------------------------------|

e|---------x--------------x---x------------x---------------------------------|
B|-2-0-----x-----2-0------x---x--2--(2)----x----0----------0-----------------|
G|-2-------x-2---1--------x-2-x--1--(1)----x----2-------2--------------------|
D|-0----4--x-----0----4---x---x--2--(2)----x----2----4-----------------------|
A|-2-------x--------------x---x--0--(0)----x---------------------------------|
E|---------x-----0--------x---x------------x-2-------------------------------|

e|-------x------------------------x------------------------------------------|
B|--2----x--0---------0------2----x--0-------0-------------------------------|
G|--2----x--1------2---------1----x--2----2----------------------------------|
D|--0----x--0---4------------2----x--2---------------------------------------|
A|--2----x-------------------0----x------------------------------------------|
E|-------x--0---------------------x--2---------------------------------------|

e|-0---------x----0----------x-----------------------x-----------------------|
B|-2--3--2---x-0--0---3--2---x--0----------------2---x---0-----------0-------|
G|-2---------x----1----------x-----1----------1------x---2-----2-------------|
D|-----------x---------------x-------------2---------x---2--------2----------|
A|-2---------x---------------x----------0------------x-----------------------|
E|-----------x----0----------x-----------------------x---2-------------------|

[Outro]
e|---------------------------------------------------------------------------|
B|--------0--2---2--0-----0--------------------------------------------------|
G|--2--2---------1-----2-----------1-------------------2---------------------|
D|--0------------0-----------------2---2---------2--4------------------------|
A|--2------------------------------0------4---4------------------------------|
E|---------------0-----------------------------------------------------------|

e|----------------------------------------x----------------------------------|
B|--------0--2---2--0-----0---------------x---------------0------------------|
G|--2--2---------1-----2-----------1---2--x---2-------2----------------------|
D|--0------------0-----------------2------x---2----4-------------------------|
A|--2------------------------------0------x----------------------------------|
E|---------------0------------------------x---2------------------------------|



************************************

| x    Dead note
| (n)  Ghost note

************************************
Suggest correction
Creating personal tab
Creating personal tab
You can edit any tab online and save it as your Personal.

You can edit, replace or remove any tab part or add personal notes – all changes will be seen only by you.

Personal tabs can be accessed anytime from any device, even offline.
Learn more »
Give kudos to tab author, rate the tab!
1 2 3 4 5
comments
print report bad tab
guest
You may want to rate the tab now too:
select rating
Wanna post a correction for this tab? Suggest correction