Oops, an error
Loading. Please wait.

Ariel Bass Tab

10 views 1 this week
no commentswrite comment
1 2 3 4 5
3 more votes to show rating
add to favorites
launch autoscroll
font size
0
reset
guitar tuner
Autoscroll
slow
fast
+/-
esc
set tempo
stop
Help us to improve Ultimate-Guitar.com Take our survey!
×
Author
Difficulty
novice
About this tab version
It's the first bass tab for Ariel. Was this info helpful? Yes No
==========================================================================================================
                                           ARIEL - DEAN FRIEDMAN
==========================================================================================================
Artist: Dean Friedman
Song: Ariel
Tabbed by: jhb31415

Slaps and pops are optional, but in my opinion they sound better for the song. Whatever toasts your goat.
This is also my interpretation, so it's not entirely correct. Some of the 9's will be a 7/9, but that's your
choice whether you want to play it. The one in the outré is the one I feel is the most prominent.

| h   Hammer-on
| p   Pull-off
| /   Slide up
| \   Slide down
| ~   Vibrato
| s   Slap
| P   Pop

###########################################################################################################

[Intro]


G|-----0---9-7---0---9-7---0---9-7---0---9-7---------------------------|
D|-------------9---------9---------9---------9-------------------------|
A|---------------------------------------------------------------------|
E|---------------------------------------------------------------------|



[Verse]


G|-----0---9-7----------------------------9-7---0---9-7-------------------------------|
D|-------------9-0---9-7---0---9-7------------9---------9-0---9-7---0---9-7-----------|
A|-----------------------9---------9/10---------------------------9---------9/10-10---|
E|------------------------------------------------------------------------------------|



[Pre-Chorus]


G|---------------------------------------------------------------------------------------------|
D|-----------------------------------------------------5-5-6-7---7-7~--------------------------|
A|--------------------------------------------------5------------------5-----5-5-5-5-5-5-5-5---|
E|-----5-5-6-7--7\0-0--5-5-6-7--7\0-0--3-3-4-5-5-5-------------5-------------------------------|



[Verse 2]


G|-----0---9-7----------------------------7h9p7-------0---9-7-------------------------------|
D|-------------9-0---9-7---0---9-7--------------9-7-9---------9-0---9-7---0---9-7-----------|
A|-----------------------9---------9/10---------------------------------9---------9/10-10---|
E|------------------------------------------------------------------------------------------|



[Pre-Chorus]


G|--------------------------------------------------------------------------------------------|
D|----------------------------------------------------5-5-6-7--7-7~---------------------------|
A|--------------------------------------------------5---------------5-----5-5-5-5-5-5-5-5-----|
E|-----5-5-6-7--7\0-0--5-5-6-7--7\0-0--3-3-4-5--5-5-----------5-5-----------------------------|
                                                             sPsP


[Chorus]


G|---------------------------7-7----------------------------------------------------|
D|-----5---7-8-9--------7---------5--7-7-7-8-9--------7-----------------------------|
A|--------------------7---5-------------------------7---5-5-5-----------------------|
E|---------------7--5--------------------------7--5---------------------------------|



[Verse 3]


G|-----0---9-7----------------------------7h9p7-------0---9-7-------------------------------|
D|-------------9-0---9-7---0---9-7--------------9-7-9---------9-0---9-7---0---9-7-----------|
A|-----------------------9---------9/10---------------------------------9---------9/10-10---|
E|------------------------------------------------------------------------------------------|



[Pre-Chorus]


G|------------------------------------------------------------------------------------------|
D|----------------------------------------------7--7~---5-5-6-7--7--7~----------------------|
A|----------------------------------------------------5-----------------5-----5-5-5-5-5-----|
E|-----5-5-6-7--7\0-0--5-5-6-7--7\0-0--3-3-4-5-5--5-------------5--5------------------------|
                                               sP sP            sP sP



[Chorus]


G|---------------------------7-7----------------------------------------------------|
D|-----5---7-8-9--------7---------5--7-7-7-8-9--------7-----------------------------|
A|--------------------7---5-------------------------7---5-5-5-----------------------|
E|---------------7--5--------------------------7--5---------------------------------|



[Sax Solo]


G|-----0---9-7----------------------------12--16-16-16---0---9-7-------------------------------|
D|-------------9-0---9-7---0---9-7---12h14-----------------------9-0---9-7---0---9-7-----------|
A|-----------------------9---------9---------------------------------------9---------9/10-10---|
E|---------------------------------------------------------------------------------------------|


G|-----------------------------------------------------------------------------------------|
D|-------------------------------------------------7----5-5-6-7-7--7~----------------------|
A|----------------------------------------------------5-----------------5-----5-5-5-5-5----|
E|-----5-5-6-7--7\0-0--5-5-6-7--7\0-0--3-3-4-5-5---------------5---5-----------------------|
                                               s   P            sP sP


[Verse 4]


G|-----0---9-7----------------------------7h9p7-------0---9-7-------------------------------|
D|-------------9-0---9-7---0---9-7--------------9-7-9---------9-0---9-7---0---9-7-----------|
A|-----------------------9---------9/10---------------------------------9---------9/10-10---|
E|------------------------------------------------------------------------------------------|



[Pre-Chorus]


G|----------------------------------------------------------------------------------------------|
D|----------------------------------------------7--7~---5-5-6-7--7--7~--------------------------|
A|----------------------------------------------------5-----------------5-----5-5-5-5-5-5-5-----|
E|-----5-5-6-7--7\0-0--5-5-6-7--7\0-0--3-3-4-5-5--5-------------5--5----------------------------|
                                               sP sP            sP sP


[Final Chorus]


G|---------------------------7-7----------------------------------------------------|
D|-----5---7-8-9--------7---------5--7-7-7-8-9--------7-----------------------------|
A|--------------------7---5-------------------------7---5-5-5-----------------------|
E|---------------7--5--------------------------7--5---------------------------------|

G|-----------------------------9h11p9------------------------------------------|
D|-----7---9-10-11--------9-------------7--9-9-9-10-11--------9----------------|
A|----------------------9---7-------------------------------9---7-7-7--5-5-5---|
E|-----------------9--7--------------------------------9--7--------------------|



[Outro]


G|-----0---9-7------------------------------9-7---0---9-7----------------------------|
D|-------------9-0---7/9-7---0---9-7------------9---------9-0---9-7---0---9-7--------|
A|-------------------------9---------9/10---------------------------9---------9/10---|
E|-----------------------------------------------------------------------------------|


G|-----9-7------------------9-7------------------------------------|
D|---------9-0---9-7-------------9-0-------------------------------|
A|-------------------9/10------------------------------------------|
E|-----------------------------------------------------------------|
Suggest correction
Give kudos to tab author, rate the tab!
1 2 3 4 5
comments
print report bad tab
guest
You may want to rate the tab now too:
select rating
Wanna post a correction for this tab? Suggest correction