Oops, an error
Loading. Please wait.
We have Chord Pro version of Waves.
It's the closest thing you can get to the original song and it has interactive parts. Check out the tab »
×
43,951 views 1,203 this week
9 commentsread comments
1 2 3 4 5
x 68
add to favorites
×
Save as Personal and add changes to this tab that will be seen only by you. Learn more ›
×
You can save this tab as Personal to edit and correct it or add notes. All changes will be seen only by you. Learn more »
launch autoscroll
font size
0
reset
how to read this tab
guitar tuner
edit
Autoscroll
slow
fast
+/-
esc
set tempo
stop
Waves – Dean Lewis

[Intro]
G Bm D A

   G                     Bm 
e|---------------------------------------------|
b|---------------------------------------------|
G|---4-4-4-4---4-4-4-/-7---7-7-7-7--7-7-7-7/11-|
D|---------------------------------------------|
A|---------------------------------------------|
E|-3---------3-----------7---------7-----------|
                                                                            X2
   D                               A
e|-----------------------------------------------|
b|-----------------------------------------------|
G|---11-11-11-11----11-11-11\6--6-6-6-6--6-6-6\4-|
D|-----------------------------------------------|
A|-----------------------------------------------|
E|-10------------10-----------5--------5---------|


G                   Bm              D                             A
There is a swelling storm and I'm caught up in the middle of it all
       G          Bm                        D                              A
And it takes control of the person that I thought I was, the boy I used to know

[Verse]

   G          A          Bm         D
e|----------|----------|----------|------------------|
b|----------|----------|----------|------------------|
G|--4-4-4-4-|--6-6-6-6-|--7-7-7-7-|---11--11--11--11-|
D|----------|----------|----------|------------------|
A|----------|----------|----------|------------------|
E|-3-3-3-3--|-5-5-5-5--|-7-7-7-7--|-10--10--10--10---|

G          A            Bm         D              
There is a light in the dark And I feel its warmth


   G          A          Bm         Em      D
e|----------|----------|----------|------------------|---------------------|
b|----------|----------|----------|------------------|---------------------|
G|--4-4-4-4-|--6-6-6-6-|--7-7-7-7-|---12--12--11--11-|--6--6--6--6--6--6--6|
D|----------|----------|----------|------------------|---------------------|
A|----------|----------|----------|------------------|---------------------|
E|-3-3-3-3--|-5-5-5-5--|-7-7-7-7--|-12--12--10--10---|-5--5--5--5--5--5--5-|

G     A            Bm    Em        D        A
In my hands, in my heart Why can't I hold on?


[Pre Chorus]

   Bm      G       D        A 
e|-------------------------------|
b|-------------------------------|
G|-7-------4-------11-------6----|
D|-------------------------------|     x 2
A|-------------------------------|
E|-7-------3-------10-------5----|

Bm           G      D            A     Bm  G     D        A 
It comes and goes in waves,  it always does, it always does


   G          G          D              A      
e|----------|----------|--------------|----------|
b|----------|----------|--------------|----------|
G|--7-7-7-7-|--4-4-4-4-|--11-11-11-11-|--6-6-6-6-|
D|----------|----------|--------------|----------|  x2
A|----------|----------|--------------|----------|
E|-7-7-7-7--|-3-3-3-3--|-10-10-10-10--|-5-5-5-5--|

   Bm            G           D    A        Bm     G    D     A
We watch as our young hearts fade Into the flood, into the flood


[Chorus]

   G          A          Bm         D
e|----------|----------|----------|------------------|
b|----------|----------|----------|------------------|
G|--4-4-4-4-|--6-6-6-6-|--7-7-7-7-|---11--11--11--11-|
D|----------|----------|----------|------------------|   x2
A|----------|----------|----------|------------------|
E|-3-3-3-3--|-5-5-5-5--|-7-7-7-7--|-10--10--10--10---|

G        A           Bm                 D           A      G
Freedom, falling, The feeling that I thought was set in stone
G             A          Bm     D       
Slips through my fingers Trying hard to let go


  Em              D              A         A
e|--------------|--------------|----------|----------|
b|--------------|--------------|----------|----------|
G|--12-12-12-12-|--11-11-11-11-|--6-6-6-6-|--6-6-6-6-|
D|--------------|--------------|----------|----------|   x2
A|--------------|--------------|----------|----------|
E|-12-12-12-12--|-10-10-10-10--|-5-5-5-5--|-5-5-5-5--|

Em            D      A     A   Em           D       A        A
It comes and goes in waves     It comes and goes in waves and carries us away



[Verse]
G             Bm      D                                 A
  Through the wind, down to the place we used to lay when we were kids
G                    Bm                  D                        A
Memories of a stolen place Caught in the silence that got lost in space

[Pre Chorus] 
[Chorus]

[Bridge]
G            Bm         A            D              
I watched my world view disappear in front of my eyes
G          Bm        A       A
Moments of magic and wonder Seems so hard to find
G            Bm          A                 D              
Is it coming back again? Is it ever coming back again?
G                   Bm           A                      A
Take me back to the feeling when Everything was left to find

[Pre Chorus] – single pulses

[Chorus]

…It carries us away

_________________________________
For Sofie @ BCR and Melissa at CV

            
            
Suggest correction
Creating personal tab
Creating personal tab
You can edit any tab online and save it as your Personal.

You can edit, replace or remove any tab part or add personal notes – all changes will be seen only by you.

Personal tabs can be accessed anytime from any device, even offline.
Learn more »
comments
print report bad tab
9 comments total. Showing first comments.
+4 reply
zarrar007 10 Mar 18, 2017 01:04 AM

THANK YOUUU! Been waiting so long for the picking pattern

+6 reply
baileyc99 10 Apr 08, 2017 12:28 AM

This is perfect, most accurate tab on here! Good work

+5 reply
Jacinta31 10 Apr 17, 2017 05:08 AM

Which finger picking pattern do we do for bridge ??

guest
You may want to rate the tab now too:
select rating
Wanna post a correction for this tab? Suggest correction