Oops, an error
Loading. Please wait.

Bette Davis Eyes Live tab

2,428 views 78 this week
1 commentread comment
1 2 3 4 5
x 5
add to favorites
×
Save as Personal and add changes to this tab that will be seen only by you. Learn more ›
×
You can save this tab as Personal to edit and correct it or add notes. All changes will be seen only by you. Learn more »
launch autoscroll
font size
0
reset
how to read this tab
guitar tuner
edit
Autoscroll
slow
fast
+/-
esc
set tempo
stop
[Intro]
D#|----------0---------0--------------------------------3h5-------------|
A#|------------1---------1--------------0h1h3-3~1-1h3/5-----3~----------|
F#|-----0--------0---------0-----------2---------2----------------------|
C#|---3---3--------3---------3~-----------------------------------------|
G#|----------------------------------0----------------------------------|
D#|-1-------------------------------------------------------------------|

D#|---------------------------------------------------------------------|
A#|-1---1---0h1---1-1-0---0-------1---------1-0---------1---------1-0---|
F#|---2---2---0---2-2-0-0-----------0----0h2--0-----------0----0h2--0---|
C#|-----------------------------------3-2-------------------3-2---------|
G#|---------------------------------------------------------------------|
D#|-----------------------------1---------------------1-----------------|

[Verse]

"Her hair is Harlow...

    F       Am         G
D#|-------x----------x-----x-----x---|-------x----------x-----x-----x---|
A#|---1---x--------1-x-0---x-0---x---|---1---x--------1-x-0---x-0---x---|
F#|---2---x-----0h2--x-0---x-0---x---|---2---x-----0h2--x-0---x-0---x---|
C#|---3---x-----0h2--x-0---x-0---x---|---3---x-----0h2--x-0---x-0---x---|
G#|-------x---0------x-----x-----x---|-------x---0------x-----x-----x---|
D#|-1-----x----------x-3---x-3---x---|-1-----x----------x-3---x-3---x---|

...gold.                  Her [...] surprise                 Her hands are never


D#|-------x----------x-----x-----x---|-------x----------x-3-------------|
A#|---1---x--------1-x-0---x-0---x---|---1---x--------1-x-0-------------|
F#|---2---x-----0h2--x-0---x-0---x---|---2---x-----0h2--x-0-------------|
C#|---3---x-----0h2--x-0---x-0---x---|---3---x-----0h2--x-0-------------|
G#|-------x---0------x-----x-----x---|-------x---0------x-2-------------|
D#|-1-----x----------x-3---x-3---x---|-1-----x----------x-3-------------|

...cold                   she's got [...] eyes                 And she'll

[Chorus]
    F               C                  Am                 C
D#|-------x---------x-------x---------x-------x---------x-------x-------|
A#|---1---x---1-----x---1---x---1-----x---1---x---1-----x---1---x-------|
F#|---2---x---2-----x---0---x---0-----x---1---x---1-----x---0---x-------|
C#|---3---x---3-----x---2---x---2-----x---2---x---2-----x---2---x-------|
G#|-------x---------x---3---x---3-----x---0---x---0-----x---3---x-------|
D#|---1---x---1-----x-------x---------x-------x---------x-------x-------|

...tease you, she'll unease you, all the better   just to please you

             Am                C                 F
D#|---------x-------x---------x-------x---------x-------x---------x-----|
A#|---1-----x---1---x---1-----x---1---x---1-----x---1---x---1-----x-----|
F#|---0-----x---2---x---2-----x---0---x---0-----x---2---x---2-----x-----|
C#|---2-----x---2---x---2-----x---2---x---2-----x---3---x---3-----x-----|
G#|---3-----x---0---x---0-----x---3---x---3-----x-------x---------x-----|
D#|---------x-------x---------x-------x---------x---1---x---1-----x-----|

        she's precocious and she knows [..] what it takes to make a

   C            G       Am              C
D#|-------x---------x-------x---------x-------x---------0------------0--|
A#|---1---x---1-0---x-0-1---x---1-----x---1---x---1-----0------------1--|
F#|---0---x---0-0---x-0-2---x---2-----x---0---x---0-----2------------2--|
C#|---2---x---2-0---x-0-2---x---2-----x---2---x---2-----2------------2--|
G#|---3---x---3-----x---0---x---0-----x---3---x---3-----0------------0--|
D#|-------x-----3---x-3-----x---------x-------x-------------------------|
                                                                     Am
      pro blush             all the boys think she's a spy she's got Bette Davis eyes.

[Interlude]
D#|-------x----------x-----x-----x---|----------------------------------|
A#|---1---x--------1-x-0---x-0---x---|----------------------------------|
F#|---2---x-----0h2--x-0---x-0---x---|----------------------------------|
C#|---3---x-----0h2--x-0---x-0---x---|----------------------------------|
G#|-------x---0------x-----x-----x---|----------------------------------|
D#|-1-----x----------x-3---x-3---x---|----------------------------------|

                                       And she'll

[Chorus]
    F               C                  Am                 C
D#|-------x---------x-------x---------x-------x---------x-------x-------|
A#|---1---x---1-----x---1---x---1-----x---1---x---1-----x---1---x-------|
F#|---2---x---2-----x---0---x---0-----x---2---x---2-----x---0---x-------|
C#|---3---x---3-----x---2---x---2-----x---2---x---2-----x---2---x-------|
G#|-------x---------x---3---x---3-----x---0---x---0-----x---3---x-------|
D#|---1---x---1-----x-------x---------x-------x---------x-------x-------|

...tease you, she'll unease you, all the better   just to please you

                 Am             C                  F
D#|---------x----0--------------0------------------1------------x-------|
A#|---1-----x----1--------------1------------------1------------x-------|
F#|---0-----x----1--------------0------------------2------------x-------|
C#|---2-----x----2--------------2------------------3------------x-------|
G#|---3-----x----0--------------3------------------3------------x-------|
D#|---------x--------------------------------------1------------x-------|

[Strumming]      Am            C                  F
      she's precocious and she knows just what it takes to make a

   C       G Am                         C
D#|--------3-0---------x--------------x-------x---------0------------0--|
A#|-1------0-1---------x--------1-----x---1---x---1-----0------------1--|
F#|-0------0-2---------x--------2-----x---0---x---0-----2------------2--|
C#|-2------0-2---------x--------2-----x---2---x---2-----2------------2--|
G#|-3------2-0---------x--------0-----x---3---x---3-----0------------0--|
D#|--------3-----------x--------------x-------x-------------------------|

   C       G Am                                                      Am
   pro blush             all the boys think she's a spy,    she's got Bette Davis....


Strumming:

Am          C          G                Am     C       G
ooooooooooo-oooooooo - oh she's gotta - oooooo-ooo-oooooo

                 Am       C                      Am   G
oh she's gotta - ooooo-oo-oooo-oo-oo-oo-ooo-oooo-oooo-oooooo


oh she's gotta...

[Solo]

Playing Am and F virtuousely, then..

[Outro]

D#|-5~~5-3-----------|---------------3-----------3------------------------------0-|
A#|--------5-3-1-----|---1---------1-0-------0h1---3/5-5\3-3p1-0-1-0-----------1--|
F#|--------------2---|-----0----0h2--0-------------------------------2--------2---|
C#|----------------2-|-------3-2-----0---------------------------------2-----2----|
G#|------------------|---------------2--------------------------------------0-----|
D#|------------------|-1-------------3--------------------------------------------|


************************************

| h  Hammer-on
| p  Pull-off
| /  Slide up
| ~  Vibrato

************************************
Suggest correction
Creating personal tab
Creating personal tab
You can edit any tab online and save it as your Personal.

You can edit, replace or remove any tab part or add personal notes – all changes will be seen only by you.

Personal tabs can be accessed anytime from any device, even offline.
Learn more »
comments
print report bad tab
1 comment total.
0 reply
brunner.da 36 Jan 01, 2017 09:26 AM

Hey Guys.
I corrected the Tab everyday a little since I posted it. Now I'm finally satisfied with it. Let me know if you find any mistakes or if you have any suggestions.
Keep on playing!

guest
You may want to rate the tab now too:
select rating
Wanna post a correction for this tab? Suggest correction