Oops, an error
Loading. Please wait.

Lies Tab

4,024 views 21 this week
no commentswrite comment
1 2 3 4 5
excellent!
x 6
add to favorites
launch autoscroll
font size
0
reset
how to read this tab
guitar tuner
Autoscroll
slow
fast
+/-
esc
set tempo
stop
Help us to improve Ultimate-Guitar.com Take our survey!
×
Author
Difficulty
novice
==================================
            Deap Vally
              "Lies"
Track #7 on the "Sistrionix" album
==================================

Official band website: deapvally.com

Tabbed by Pedro Macedo, A.K.A. Linkerman
Comments and ratings are very much appreciated!
E-mails to "o_samaritano-hellboy(at)sapo.pt"


Standard tuning


Intro                    x3
e||----------------------||-------------------|
B||o--------------------o||-----10b12r10-8----|
G||----------------------||----------------9~-|
D||-------5555-----------||-------------------|
A||o-----------77777777-o||-------------------|
E||--7777----------------||-5~~---------------|


Verse
e|--------------------------|
B|--------------------------|
G|-7-/-9--7-/-9--7-/-9------| x4
D|-7-/-9--7-/-9--7-/-9--2~~-|
A|-5-/-7--5-/-7--5-/-7--2~~-|
E|----------------------0~~-|


Chorus                   x3
e||----------------------||--------------------|
B||o--------------------o||--------------------|
G||----------------------||--------------------|
D||-------5555-----------||--------------------|
A||o-----------77777777-o||------5555-77777777-|
E||--7777----------------||-5555---------------|

                         x3
e||----------------------||-------------------|
B||o--------------------o||-----10b12r10-8----|
G||----------------------||----------------9~-|
D||-------5555-----------||-------------------|
A||o-----------77777777-o||-------------------|
E||--7777----------------||-5~~---------------|


Play Verse
Play Chorus


Break                        x3
e||--||----------------------||---------------------||
B||o-||o--------------------o||--------------------o||
G||--||----------------------||---------------------||
D||--||-------5555-----------||-7777----------------||
A||o-||o-----------77777777-o||------5555-77777777-o||
E||--||--7777----------------||---------------------||

                         x3
e||----------------------||-------------------|
B||o--------------------o||-----10b12r10-8----|
G||----------------------||----------------9~-|
D||-------5555-----------||-------------------|
A||o-----------77777777-o||-------------------|
E||--7777----------------||-5~~---------------|


Solo
e|--------------------------------------|
B|----------------------10b12-12-r-10-8-|
G|-7-/-9--7-/-9--7-/-9------------------|
D|-7-/-9--7-/-9--7-/-9------------------|
A|-5-/-7--5-/-7--5-/-7------------------|
E|--------------------------------------|

e||----------------------------------------------||
B||o----------------------10b12-12-12-12-r-10-8-o||
G||--7-/-9--7-/-9--7-/-9-------------------------||
D||--7-/-9--7-/-9--7-/-9-------------------------||
A||o-5-/-7--5-/-7--5-/-7------------------------o||
E||----------------------------------------------||

e|-10b12r-10---------------------|
B|-----------12--10b12r-10-------|
G|-------------------------12-9~-|
D|-------------------------------|
A|-------------------------------|
E|-------------------------------|


Final Chorus                 x3
e||--------------------------||--------------------|
B||o------------------------o||--------------------|
G||-------12121212-99999999--||------7777-99999999-|
D||--9999-12121212-99999999--||-7777-7777-99999999-|
A||o-9999-10101010-77777777-o||-7777-5555-77777777-|
E||--7777--------------------||-5555---------------|

                             x3
e||--------------------------||--------------------------|
B||o------------------------o||-----10b12r10--8----------|
G||-------12121212-99999999--||------------------9~~~~-\-|
D||--9999-12121212-99999999--||-7~~----------------------|
A||o-9999-10101010-77777777-o||-7~~----------------------|
E||--7777--------------------||-5~~----------------------|
Suggest correction
comments
print report bad tab
guest
You may want to rate the tab now too:
select rating
Wanna post a correction for this tab? Suggest correction