Oops, an error
Loading. Please wait.

Hallelujah Tab

9,560 views 1 this week
2 commentsread comments
1 2 3 4 5
accurate
x 3
add to favorites
launch autoscroll
font size
0
reset
how to read this tab
guitar tuner
Autoscroll
slow
fast
+/-
esc
set tempo
stop
Help us to improve Ultimate-Guitar.com Take our survey!
×
Author
dear and the headlights - hallelujah

i learned the song by ear, so let me know if there is anything wrong with it.


intro/verse

e-------1-------------0-------------0-----------0---------------0-------|
B---------3--3----------1--1----------1--1---------1---1----------1---1-|
G----2-----2-------2-----2-------2-----2-----2-------2-------2------2---|
D-0----------------------------3----------------------------------------|
A----------------1-------------------------3---------------1------------|
E-----------------------------------------------------------------------|


-----0-------------------------|
--------1---1-----2-3-5-6-8-10-|
---2------2--------------------|
---------------0---------------|
-1-----------------------------|
-------------------------------|


chorus - i couldn't figure out the chords used here..
but i figured out this part:

--------------------0------0-----0/3/0---|
------------------3---3------3---------3-|
-3-2-0----------3-------3------3---------|
--------2-3-5----------------------------|
-----------------------------------------|
-----------------------------------------|


------------------------------------1-1-1-1-1-1-1-1-1-1-1-1-|
------------------------------------3-3-3-3-3-3-3-3-3-3-3-3-|
-3-2-0-----------------0-2----------2-2-2-2-2-2-2-2-2-2-2-2-|
--------2-3-5------0-3-----2-3---0--0-0-0-0-0-0-0-0-0-0-0-0-|
---------------0-1-------------3----------------------------|
------------------------------------------------------------|


verse 2
listen to the song to figure ou the strum pattern.

-0-0-0-0-----------------|
-1-1-1-1----2-3-5-6-8-10-|
-2-2-2-2-----------------|
-3-x-x-x--0--------------|
-0-3-1-1-----------------|
-------------------------|
Suggest correction new What's this?
You can suggest a correction to this tab. Community and Mods will review your correction and vote to approve or reject it.
comments
We did not receive enough feedback on this tab! Please rate:
print report bad tab
1 2 3 4 5
2 comments total.
0 reply
dannyboy1994 12 wrote on May 30 2014, 12:31 am

Chorus is Gm Dm Am C

Also, verse 1 is played like this:
e-------1-------------0-------------0-----------0---------------0-------|
B---------3--3----------3--3----------1--1---------1---1----------1---1-|
G----2-----2-------0-----0-------2-----2-----2-------2-------2------2---|
D-0--------------------------------------------------------------------|
A----------------2-------------3------------3---------------1------------|
E-----------------------------------------------------------------------|

-----0-------------------------|
--------1---1------2-3-5-6-8-10-|
---2------2--------------------|
---------------0-2--------------|
-1-----------------------------|
-------------------------------|

Verse 2 is just using the full chords:
Dm G F F Bb Bb

Play the Bb with the same fingering as you do when you finger pick it in the first verse

0 reply
Joey1v 24 wrote on July 29 2015, 10:05 pm, edited at 10:07 pm

e-----------------------------------------------------------------------------------------------------------------|
B----------5---------------------4--------------------4---------------------4------------------1--2--4--5--7--9---|
G--------------6---6-----------------6---6----------------4---4-----------------4---4-----------------------------|
D------6---------6-----------4---------4----------6---------6-----------6---------6-------------------------------|
A--4-------------------------------------------------------------------------------------4--6---------------------|
E------------------------6--------------------7---------------------5---------------------------------------------|
^2x

to get it to sound right you can tune a half step down or play it like this actually. same for the whole song

guest
You may want to rate the tab now too:
select rating
Please do not post tabs as comments. Select "correction" instead!